999
FreeCAD v2023.1102 14555 (Git shallow)
  0
SECTION
  2
HEADER
  9
$ACADVER
  1
AC1014
  9
$ACADMAINTVER
 70
     9
  9
$DWGCODEPAGE
  3
ANSI_1252
  9
$TEXTSTYLE
  7
STANDARD
  9
$DIMSTYLE
  2
STANDARD
  9
$DIMTXSTY
  7
STANDARD
  9
$CMLSTYLE
  2
STANDARD
  9
$LUNITS
 70
2
  9
$INSUNITS
 70
4
  9
$PEXTMAX
 10
50
 20
50
 30
50
  9
$PEXTMIN
 10
0
 20
0
 30
0
  9
$HANDSEED
  5
FFFF
  0
ENDSEC
  0
SECTION
  2
CLASSES
  0
CLASS
  1
ACDBDICTIONARYWDFLT
  2
AcDbDictionaryWithDefault
  3
ObjectDBX Classes
 90
        0
280
     0
281
     0
  0
CLASS
  1
XRECORD
  2
AcDbXrecord
  3
ObjectDBX Classes
 90
        0
280
     0
281
     0
  0
CLASS
  1
LWPOLYLINE
  2
AcDbPolyline
  3
ObjectDBX Classes
 90
        0
280
     0
281
     1
  0
ENDSEC
  0
SECTION
  2
TABLES
  0
TABLE
  2
VPORT
  5
20
330
0
100
AcDbSymbolTable
 70
     1
  0
VPORT
  5
21
330
20
100
AcDbSymbolTableRecord
100
AcDbViewportTableRecord
  2
*ACTIVE
 70
     0
  0
ENDTAB
  0
TABLE
  2
LTYPE
  5
22
330
0
100
AcDbSymbolTable
 70
     1
  0
LTYPE
  5
23
330
21
100
AcDbSymbolTableRecord
100
AcDbLinetypeTableRecord
  2
BYBLOCK
 70
     0
  3

 72
    65
 73
     0
 40
0.0
  0
LTYPE
  5
24
330
21
100
AcDbSymbolTableRecord
100
AcDbLinetypeTableRecord
  2
BYLAYER
 70
     0
  3

 72
    65
 73
     0
 40
0.0
  0
LTYPE
  5
25
330
21
100
AcDbSymbolTableRecord
100
AcDbLinetypeTableRecord
  2
CONTINUOUS
 70
     0
  3
Solid line
 72
    65
 73
     0
 40
0.0
  0
ENDTAB
  0
TABLE
  2
LAYER
  5
A6C
330
0
100
AcDbSymbolTable
 70
3
  0
LAYER
  5
A6D
330
A6C
100
AcDbSymbolTableRecord
100
AcDbLayerTableRecord
  2
0
 70
   0
 62
   7
  6
CONTINUOUS
  0
LAYER
  5
A6E
330
A6C
100
AcDbSymbolTableRecord
100
AcDbLayerTableRecord
  2
none
 70
    0
 62
    7
  6
CONTINUOUS
  0
LAYER
  5
A6F
330
A6C
100
AcDbSymbolTableRecord
100
AcDbLayerTableRecord
  2
Sketch019
 70
    0
 62
    7
  6
CONTINUOUS
  0
ENDTAB
  0
TABLE
  2
STYLE
  5
70
330
0
100
AcDbSymbolTable
 70
     2
  0
STYLE
  5
71
330
70
100
AcDbSymbolTableRecord
100
AcDbTextStyleTableRecord
  2
STANDARD
 70
     0
 40
0.0
 41
1.0
 50
0.0
 71
     0
 42
2.5
  3
arial.ttf
  4

  0
STYLE
  5
72
330
70
100
AcDbSymbolTableRecord
100
AcDbTextStyleTableRecord
  2
ANNOTATIVE
 70
     0
 40
0.0
 41
1.0
 50
0.0
 71
     0
 42
2.5
  3
arial.ttf
  4

  0
ENDTAB
  0
TABLE
  2
VIEW
  5
73
330
0
100
AcDbSymbolTable
 70
     0
  0
ENDTAB
  0
TABLE
  2
UCS
  5
74
330
0
100
AcDbSymbolTable
 70
     0
  0
ENDTAB
  0
TABLE
  2
APPID
  5
75
330
0
100
AcDbSymbolTable
 70
     2
  0
APPID
  5
76
330
75
100
AcDbSymbolTableRecord
100
AcDbRegAppTableRecord
  2
ACAD
 70
     0
  0
APPID
  5
77
330
75
100
AcDbSymbolTableRecord
100
AcDbRegAppTableRecord
  2
ACADANNOTATIVE
 70
     0
  0
ENDTAB
  0
TABLE
  2
DIMSTYLE
  5
78
330
0
100
AcDbSymbolTable
 70
     2
  0
DIMSTYLE
105
79
330
78
100
AcDbSymbolTableRecord
100
AcDbDimStyleTableRecord
  2
STANDARD
 70
     0
  3

  4

  5

  6

  7

 40
0.0
 41
2.5
 42
0.625
 43
3.75
 44
1.25
 45
0.0
 46
0.0
 47
0.0
 48
0.0
140
2.5
141
2.5
142
0.0
143
0.03937007874016
144
1.0
145
0.0
146
1.0
147
0.625
 71
     0
 72
     0
 73
     0
 74
     0
 75
     0
 76
     0
 77
     1
 78
     8
170
     0
171
     3
172
     1
173
     0
174
     0
175
     0
176
     0
177
     0
178
     0
270
     2
271
     2
272
     2
273
     2
274
     3
340
71
275
     0
280
     0
281
     0
282
     0
283
     0
284
     8
285
     0
286
     0
287
     3
288
     0
  0
ENDTAB
  0
TABLE
  2
BLOCK_RECORD
  5
A01
330
0
100
AcDbSymbolTable
  70
5
  0
BLOCK_RECORD
  5
A02
330
A01
100
AcDbSymbolTableRecord
100
AcDbBlockTableRecord
  2
*MODEL_SPACE
  0
BLOCK_RECORD
  5
A03
330
A01
100
AcDbSymbolTableRecord
100
AcDbBlockTableRecord
  2
*PAPER_SPACE
  0
ENDTAB
  0
ENDSEC
  0
SECTION
  2
BLOCKS
  0
BLOCK
  5
A04
330
A02
100
AcDbEntity
  8
0
100
AcDbBlockBegin
  2
*MODEL_SPACE
 70
   0
 10
0
 20
0
 30
0
  3
*MODEL_SPACE
  1
 
  0
ENDBLK
  5
A05
330
A02
100
AcDbEntity
  8
0
100
AcDbBlockEnd
  0
BLOCK
  5
A06
330
A03
100
AcDbEntity
 67
1
  8
0
100
AcDbBlockBegin
  2
*PAPER_SPACE
 70
   0
 10
0
 20
0
 30
0
  3
*PAPER_SPACE
  1
 
  0
ENDBLK
  5
A07
330
A03
100
AcDbEntity
 67
    1
  8
0
100
AcDbBlockEnd
  0
ENDSEC
  0
SECTION
  2
ENTITIES
  0
LINE
  5
A08
330
A02
100
AcDbEntity
  8
Sketch019
100
AcDbLine
 10
-53.6607
 20
-4.60743e-15
 30
0
 11
-53.6607
 21
-12.134
 31
0
  0
LINE
  5
A09
330
A02
100
AcDbEntity
  8
Sketch019
100
AcDbLine
 10
-53.6607
 20
-12.134
 30
0
 11
-51.6607
 21
-14.134
 31
0
  0
LINE
  5
A0A
330
A02
100
AcDbEntity
  8
Sketch019
100
AcDbLine
 10
-51.6607
 20
-14.134
 30
0
 11
-47.6607
 21
-14.134
 31
0
  0
LINE
  5
A0B
330
A02
100
AcDbEntity
  8
Sketch019
100
AcDbLine
 10
-47.6607
 20
-14.134
 30
0
 11
-46.9107
 21
-14.567
 31
0
  0
LINE
  5
A0C
330
A02
100
AcDbEntity
  8
Sketch019
100
AcDbLine
 10
-46.9107
 20
-14.567
 30
0
 11
-46.9107
 21
-15.433
 31
0
  0
LINE
  5
A0D
330
A02
100
AcDbEntity
  8
Sketch019
100
AcDbLine
 10
-46.9107
 20
-15.433
 30
0
 11
-47.6607
 21
-15.866
 31
0
  0
LINE
  5
A0E
330
A02
100
AcDbEntity
  8
Sketch019
100
AcDbLine
 10
-47.6607
 20
-15.866
 30
0
 11
-51.6607
 21
-15.866
 31
0
  0
LINE
  5
A0F
330
A02
100
AcDbEntity
  8
Sketch019
100
AcDbLine
 10
-51.6607
 20
-15.866
 30
0
 11
-53.6607
 21
-17.866
 31
0
  0
LINE
  5
A10
330
A02
100
AcDbEntity
  8
Sketch019
100
AcDbLine
 10
-53.6607
 20
-17.866
 30
0
 11
-53.6607
 21
-36.8453
 31
0
  0
LINE
  5
A11
330
A02
100
AcDbEntity
  8
Sketch019
100
AcDbLine
 10
-53.6607
 20
-36.8453
 30
0
 11
-51.6607
 21
-38.8453
 31
0
  0
LINE
  5
A12
330
A02
100
AcDbEntity
  8
Sketch019
100
AcDbLine
 10
-47.6607
 20
-38.8453
 30
0
 11
-51.6607
 21
-38.8453
 31
0
  0
LINE
  5
A13
330
A02
100
AcDbEntity
  8
Sketch019
100
AcDbLine
 10
-47.6607
 20
-38.8453
 30
0
 11
-46.6607
 21
-39.4226
 31
0
  0
LINE
  5
A14
330
A02
100
AcDbEntity
  8
Sketch019
100
AcDbLine
 10
-46.6607
 20
-39.4226
 30
0
 11
-46.6607
 21
-40.5774
 31
0
  0
LINE
  5
A15
330
A02
100
AcDbEntity
  8
Sketch019
100
AcDbLine
 10
-46.6607
 20
-40.5774
 30
0
 11
-47.6607
 21
-41.1547
 31
0
  0
LINE
  5
A16
330
A02
100
AcDbEntity
  8
Sketch019
100
AcDbLine
 10
-51.6607
 20
-41.1547
 30
0
 11
-47.6607
 21
-41.1547
 31
0
  0
LINE
  5
A17
330
A02
100
AcDbEntity
  8
Sketch019
100
AcDbLine
 10
-51.6607
 20
-41.1547
 30
0
 11
-53.6607
 21
-43.1547
 31
0
  0
LINE
  5
A18
330
A02
100
AcDbEntity
  8
Sketch019
100
AcDbLine
 10
-53.6607
 20
-43.1547
 30
0
 11
-53.6607
 21
-61.5566
 31
0
  0
LINE
  5
A19
330
A02
100
AcDbEntity
  8
Sketch019
100
AcDbLine
 10
-53.6607
 20
-61.5566
 30
0
 11
-51.6607
 21
-63.5566
 31
0
  0
LINE
  5
A1A
330
A02
100
AcDbEntity
  8
Sketch019
100
AcDbLine
 10
-47.6607
 20
-63.5566
 30
0
 11
-51.6607
 21
-63.5566
 31
0
  0
LINE
  5
A1B
330
A02
100
AcDbEntity
  8
Sketch019
100
AcDbLine
 10
-47.6607
 20
-63.5566
 30
0
 11
-46.4107
 21
-64.2783
 31
0
  0
LINE
  5
A1C
330
A02
100
AcDbEntity
  8
Sketch019
100
AcDbLine
 10
-46.4107
 20
-64.2783
 30
0
 11
-46.4107
 21
-65.7217
 31
0
  0
LINE
  5
A1D
330
A02
100
AcDbEntity
  8
Sketch019
100
AcDbLine
 10
-46.4107
 20
-65.7217
 30
0
 11
-47.6607
 21
-66.4434
 31
0
  0
LINE
  5
A1E
330
A02
100
AcDbEntity
  8
Sketch019
100
AcDbLine
 10
-51.6607
 20
-66.4434
 30
0
 11
-47.6607
 21
-66.4434
 31
0
  0
LINE
  5
A1F
330
A02
100
AcDbEntity
  8
Sketch019
100
AcDbLine
 10
-51.6607
 20
-66.4434
 30
0
 11
-53.6607
 21
-68.4434
 31
0
  0
LINE
  5
A20
330
A02
100
AcDbEntity
  8
Sketch019
100
AcDbLine
 10
-53.6607
 20
-68.4434
 30
0
 11
-53.6607
 21
-86.2679
 31
0
  0
LINE
  5
A21
330
A02
100
AcDbEntity
  8
Sketch019
100
AcDbLine
 10
-53.6607
 20
-86.2679
 30
0
 11
-51.6607
 21
-88.2679
 31
0
  0
LINE
  5
A22
330
A02
100
AcDbEntity
  8
Sketch019
100
AcDbLine
 10
-51.6607
 20
-88.2679
 30
0
 11
-47.6607
 21
-88.2679
 31
0
  0
LINE
  5
A23
330
A02
100
AcDbEntity
  8
Sketch019
100
AcDbLine
 10
-47.6607
 20
-88.2679
 30
0
 11
-46.1607
 21
-89.134
 31
0
  0
LINE
  5
A24
330
A02
100
AcDbEntity
  8
Sketch019
100
AcDbLine
 10
-46.1607
 20
-89.134
 30
0
 11
-46.1607
 21
-90.866
 31
0
  0
LINE
  5
A25
330
A02
100
AcDbEntity
  8
Sketch019
100
AcDbLine
 10
-46.1607
 20
-90.866
 30
0
 11
-47.6607
 21
-91.7321
 31
0
  0
LINE
  5
A26
330
A02
100
AcDbEntity
  8
Sketch019
100
AcDbLine
 10
-51.6607
 20
-91.7321
 30
0
 11
-47.6607
 21
-91.7321
 31
0
  0
LINE
  5
A27
330
A02
100
AcDbEntity
  8
Sketch019
100
AcDbLine
 10
-51.6607
 20
-91.7321
 30
0
 11
-53.6607
 21
-93.7321
 31
0
  0
LINE
  5
A28
330
A02
100
AcDbEntity
  8
Sketch019
100
AcDbLine
 10
-53.6607
 20
-93.7321
 30
0
 11
-53.6607
 21
-110.691
 31
0
  0
LINE
  5
A29
330
A02
100
AcDbEntity
  8
Sketch019
100
AcDbLine
 10
-53.6607
 20
-110.691
 30
0
 11
-51.6607
 21
-112.691
 31
0
  0
LINE
  5
A2A
330
A02
100
AcDbEntity
  8
Sketch019
100
AcDbLine
 10
-51.6607
 20
-112.691
 30
0
 11
-47.6607
 21
-112.691
 31
0
  0
LINE
  5
A2B
330
A02
100
AcDbEntity
  8
Sketch019
100
AcDbLine
 10
-47.6607
 20
-112.691
 30
0
 11
-45.6607
 21
-113.845
 31
0
  0
LINE
  5
A2C
330
A02
100
AcDbEntity
  8
Sketch019
100
AcDbLine
 10
-45.6607
 20
-113.845
 30
0
 11
-45.6607
 21
-116.155
 31
0
  0
LINE
  5
A2D
330
A02
100
AcDbEntity
  8
Sketch019
100
AcDbLine
 10
-45.6607
 20
-116.155
 30
0
 11
-47.6607
 21
-117.309
 31
0
  0
LINE
  5
A2E
330
A02
100
AcDbEntity
  8
Sketch019
100
AcDbLine
 10
-51.6607
 20
-117.309
 30
0
 11
-47.6607
 21
-117.309
 31
0
  0
LINE
  5
A2F
330
A02
100
AcDbEntity
  8
Sketch019
100
AcDbLine
 10
-51.6607
 20
-117.309
 30
0
 11
-53.6607
 21
-119.309
 31
0
  0
LINE
  5
A30
330
A02
100
AcDbEntity
  8
Sketch019
100
AcDbLine
 10
-53.6607
 20
-119.309
 30
0
 11
-53.6607
 21
-135.113
 31
0
  0
LINE
  5
A31
330
A02
100
AcDbEntity
  8
Sketch019
100
AcDbLine
 10
-53.6607
 20
-135.113
 30
0
 11
-51.6607
 21
-137.113
 31
0
  0
LINE
  5
A32
330
A02
100
AcDbEntity
  8
Sketch019
100
AcDbLine
 10
-51.6607
 20
-137.113
 30
0
 11
-47.6607
 21
-137.113
 31
0
  0
LINE
  5
A33
330
A02
100
AcDbEntity
  8
Sketch019
100
AcDbLine
 10
-47.6607
 20
-137.113
 30
0
 11
-45.1607
 21
-138.557
 31
0
  0
LINE
  5
A34
330
A02
100
AcDbEntity
  8
Sketch019
100
AcDbLine
 10
-45.1607
 20
-138.557
 30
0
 11
-45.1607
 21
-141.443
 31
0
  0
LINE
  5
A35
330
A02
100
AcDbEntity
  8
Sketch019
100
AcDbLine
 10
-45.1607
 20
-141.443
 30
0
 11
-47.6607
 21
-142.887
 31
0
  0
LINE
  5
A36
330
A02
100
AcDbEntity
  8
Sketch019
100
AcDbLine
 10
-51.6607
 20
-142.887
 30
0
 11
-47.6607
 21
-142.887
 31
0
  0
LINE
  5
A37
330
A02
100
AcDbEntity
  8
Sketch019
100
AcDbLine
 10
-51.6607
 20
-142.887
 30
0
 11
-53.6607
 21
-144.887
 31
0
  0
LINE
  5
A38
330
A02
100
AcDbEntity
  8
Sketch019
100
AcDbLine
 10
-53.6607
 20
-144.887
 30
0
 11
-53.6607
 21
-159.536
 31
0
  0
LINE
  5
A39
330
A02
100
AcDbEntity
  8
Sketch019
100
AcDbLine
 10
-53.6607
 20
-159.536
 30
0
 11
-51.6607
 21
-161.536
 31
0
  0
LINE
  5
A3A
330
A02
100
AcDbEntity
  8
Sketch019
100
AcDbLine
 10
-51.6607
 20
-161.536
 30
0
 11
-47.6607
 21
-161.536
 31
0
  0
LINE
  5
A3B
330
A02
100
AcDbEntity
  8
Sketch019
100
AcDbLine
 10
-47.6607
 20
-161.536
 30
0
 11
-44.6607
 21
-163.268
 31
0
  0
LINE
  5
A3C
330
A02
100
AcDbEntity
  8
Sketch019
100
AcDbLine
 10
-44.6607
 20
-163.268
 30
0
 11
-44.6607
 21
-166.732
 31
0
  0
LINE
  5
A3D
330
A02
100
AcDbEntity
  8
Sketch019
100
AcDbLine
 10
-44.6607
 20
-166.732
 30
0
 11
-47.6607
 21
-168.464
 31
0
  0
LINE
  5
A3E
330
A02
100
AcDbEntity
  8
Sketch019
100
AcDbLine
 10
-51.6607
 20
-168.464
 30
0
 11
-47.6607
 21
-168.464
 31
0
  0
LINE
  5
A3F
330
A02
100
AcDbEntity
  8
Sketch019
100
AcDbLine
 10
-51.6607
 20
-168.464
 30
0
 11
-53.6607
 21
-170.464
 31
0
  0
LINE
  5
A40
330
A02
100
AcDbEntity
  8
Sketch019
100
AcDbLine
 10
-53.6607
 20
-170.464
 30
0
 11
-53.6607
 21
-183.381
 31
0
  0
LINE
  5
A41
330
A02
100
AcDbEntity
  8
Sketch019
100
AcDbLine
 10
-53.6607
 20
-183.381
 30
0
 11
-51.6607
 21
-185.381
 31
0
  0
LINE
  5
A42
330
A02
100
AcDbEntity
  8
Sketch019
100
AcDbLine
 10
-51.6607
 20
-185.381
 30
0
 11
-47.6607
 21
-185.381
 31
0
  0
LINE
  5
A43
330
A02
100
AcDbEntity
  8
Sketch019
100
AcDbLine
 10
-47.6607
 20
-185.381
 30
0
 11
-43.6607
 21
-187.691
 31
0
  0
LINE
  5
A44
330
A02
100
AcDbEntity
  8
Sketch019
100
AcDbLine
 10
-43.6607
 20
-187.691
 30
0
 11
-43.6607
 21
-192.309
 31
0
  0
LINE
  5
A45
330
A02
100
AcDbEntity
  8
Sketch019
100
AcDbLine
 10
-43.6607
 20
-192.309
 30
0
 11
-47.6607
 21
-194.619
 31
0
  0
LINE
  5
A46
330
A02
100
AcDbEntity
  8
Sketch019
100
AcDbLine
 10
-51.6607
 20
-194.619
 30
0
 11
-47.6607
 21
-194.619
 31
0
  0
LINE
  5
A47
330
A02
100
AcDbEntity
  8
Sketch019
100
AcDbLine
 10
-51.6607
 20
-194.619
 30
0
 11
-53.6607
 21
-196.619
 31
0
  0
LINE
  5
A48
330
A02
100
AcDbEntity
  8
Sketch019
100
AcDbLine
 10
-53.6607
 20
-196.619
 30
0
 11
-53.6607
 21
-207.226
 31
0
  0
LINE
  5
A49
330
A02
100
AcDbEntity
  8
Sketch019
100
AcDbLine
 10
-53.6607
 20
-207.226
 30
0
 11
-51.6607
 21
-209.226
 31
0
  0
LINE
  5
A4A
330
A02
100
AcDbEntity
  8
Sketch019
100
AcDbLine
 10
-51.6607
 20
-209.226
 30
0
 11
-47.6607
 21
-209.226
 31
0
  0
LINE
  5
A4B
330
A02
100
AcDbEntity
  8
Sketch019
100
AcDbLine
 10
-47.6607
 20
-209.226
 30
0
 11
-42.6607
 21
-212.113
 31
0
  0
LINE
  5
A4C
330
A02
100
AcDbEntity
  8
Sketch019
100
AcDbLine
 10
-42.6607
 20
-212.113
 30
0
 11
-42.6607
 21
-217.887
 31
0
  0
LINE
  5
A4D
330
A02
100
AcDbEntity
  8
Sketch019
100
AcDbLine
 10
-42.6607
 20
-217.887
 30
0
 11
-47.6607
 21
-220.774
 31
0
  0
LINE
  5
A4E
330
A02
100
AcDbEntity
  8
Sketch019
100
AcDbLine
 10
-51.6607
 20
-220.774
 30
0
 11
-47.6607
 21
-220.774
 31
0
  0
LINE
  5
A4F
330
A02
100
AcDbEntity
  8
Sketch019
100
AcDbLine
 10
-51.6607
 20
-220.774
 30
0
 11
-53.6607
 21
-222.774
 31
0
  0
LINE
  5
A50
330
A02
100
AcDbEntity
  8
Sketch019
100
AcDbLine
 10
-53.6607
 20
-222.774
 30
0
 11
-53.6607
 21
-230
 31
0
  0
LINE
  5
A51
330
A02
100
AcDbEntity
  8
Sketch019
100
AcDbLine
 10
-53.6607
 20
-230
 30
0
 11
-43.6607
 21
-230
 31
0
  0
LINE
  5
A52
330
A02
100
AcDbEntity
  8
Sketch019
100
AcDbLine
 10
-43.6607
 20
-230
 30
0
 11
-43.6607
 21
-238
 31
0
  0
LINE
  5
A53
330
A02
100
AcDbEntity
  8
Sketch019
100
AcDbLine
 10
-43.6607
 20
-238
 30
0
 11
-13.6607
 21
-238
 31
0
  0
LINE
  5
A54
330
A02
100
AcDbEntity
  8
Sketch019
100
AcDbLine
 10
-13.6607
 20
-238
 30
0
 11
-13.6607
 21
-230
 31
0
  0
LINE
  5
A55
330
A02
100
AcDbEntity
  8
Sketch019
100
AcDbLine
 10
-13.6607
 20
-230
 30
0
 11
16.3393
 21
-230
 31
0
  0
LINE
  5
A56
330
A02
100
AcDbEntity
  8
Sketch019
100
AcDbLine
 10
16.3393
 20
-230
 30
0
 11
16.3393
 21
-238
 31
0
  0
LINE
  5
A57
330
A02
100
AcDbEntity
  8
Sketch019
100
AcDbLine
 10
16.3393
 20
-238
 30
0
 11
46.3393
 21
-238
 31
0
  0
LINE
  5
A58
330
A02
100
AcDbEntity
  8
Sketch019
100
AcDbLine
 10
46.3393
 20
-238
 30
0
 11
46.3393
 21
-230
 31
0
  0
LINE
  5
A59
330
A02
100
AcDbEntity
  8
Sketch019
100
AcDbLine
 10
46.3393
 20
-230
 30
0
 11
66.3393
 21
-230
 31
0
  0
LINE
  5
A5A
330
A02
100
AcDbEntity
  8
Sketch019
100
AcDbLine
 10
66.3393
 20
-230
 30
0
 11
66.3393
 21
0
 31
0
  0
LINE
  5
A5B
330
A02
100
AcDbEntity
  8
Sketch019
100
AcDbLine
 10
46.3393
 20
7.36202e-15
 30
0
 11
66.3393
 21
7.36202e-15
 31
0
  0
LINE
  5
A5C
330
A02
100
AcDbEntity
  8
Sketch019
100
AcDbLine
 10
46.3393
 20
7.36202e-15
 30
0
 11
46.3393
 21
8
 31
0
  0
LINE
  5
A5D
330
A02
100
AcDbEntity
  8
Sketch019
100
AcDbLine
 10
16.3393
 20
8
 30
0
 11
46.3393
 21
8
 31
0
  0
LINE
  5
A5E
330
A02
100
AcDbEntity
  8
Sketch019
100
AcDbLine
 10
16.3393
 20
3.38072e-15
 30
0
 11
16.3393
 21
8
 31
0
  0
LINE
  5
A5F
330
A02
100
AcDbEntity
  8
Sketch019
100
AcDbLine
 10
-13.6607
 20
-6.00582e-16
 30
0
 11
16.3393
 21
3.38072e-15
 31
0
  0
LINE
  5
A60
330
A02
100
AcDbEntity
  8
Sketch019
100
AcDbLine
 10
-13.6607
 20
-6.00582e-16
 30
0
 11
-13.6607
 21
8
 31
0
  0
LINE
  5
A61
330
A02
100
AcDbEntity
  8
Sketch019
100
AcDbLine
 10
-43.6607
 20
8
 30
0
 11
-13.6607
 21
8
 31
0
  0
LINE
  5
A62
330
A02
100
AcDbEntity
  8
Sketch019
100
AcDbLine
 10
-43.6607
 20
-4.58188e-15
 30
0
 11
-43.6607
 21
8
 31
0
  0
LINE
  5
A63
330
A02
100
AcDbEntity
  8
Sketch019
100
AcDbLine
 10
-43.6607
 20
-4.60743e-15
 30
0
 11
-53.6607
 21
-4.60743e-15
 31
0
  0
LINE
  5
A64
330
A02
100
AcDbEntity
  8
Sketch019
100
AcDbLine
 10
-16.9107
 20
-10
 30
0
 11
-16.9107
 21
-220
 31
0
  0
ELLIPSE
  5
A65
330
A02
100
AcDbEntity
  8
Sketch019
100
AcDbEllipse
 10
-11.9107
 20
-220
 30
0
 11
6.12323e-16
 21
-5
 31
0
 40
1
 41
4.71239
 42
0
  0
LINE
  5
A66
330
A02
100
AcDbEntity
  8
Sketch019
100
AcDbLine
 10
28.0893
 20
-225
 30
0
 11
-11.9107
 21
-225
 31
0
  0
ELLIPSE
  5
A67
330
A02
100
AcDbEntity
  8
Sketch019
100
AcDbEllipse
 10
28.0893
 20
-220
 30
0
 11
6.12323e-16
 21
-5
 31
0
 40
1
 41
0
 42
1.5708
  0
LINE
  5
A68
330
A02
100
AcDbEntity
  8
Sketch019
100
AcDbLine
 10
33.0893
 20
-220
 30
0
 11
33.0893
 21
-10
 31
0
  0
ELLIPSE
  5
A69
330
A02
100
AcDbEntity
  8
Sketch019
100
AcDbEllipse
 10
28.0893
 20
-10
 30
0
 11
6.12323e-16
 21
-5
 31
0
 40
1
 41
1.5708
 42
3.14159
  0
LINE
  5
A6A
330
A02
100
AcDbEntity
  8
Sketch019
100
AcDbLine
 10
28.0893
 20
-5
 30
0
 11
-11.9107
 21
-5
 31
0
  0
ELLIPSE
  5
A6B
330
A02
100
AcDbEntity
  8
Sketch019
100
AcDbEllipse
 10
-11.9107
 20
-10
 30
0
 11
6.12323e-16
 21
-5
 31
0
 40
1
 41
3.14159
 42
4.71239
  0
ENDSEC
  0
SECTION
  2
OBJECTS
  0
DICTIONARY
  5
F000
330
0
100
AcDbDictionary
  3
ACAD_GROUP
350
F001
  0
DICTIONARY
  5
F001
330
F000
100
AcDbDictionary
  0
ENDSEC
  0
EOF