999
"DXF R12 Output" (www.mydxf.blogspot.com)
 0 
SECTION
 2 
HEADER
 9 
$ACADVER
 1 
AC1009
 9 
$EXTMIN
 10 
 0 
 20 
 0 
 9 
$EXTMAX
 10 
 8.5 
 20 
 11 
 0 
ENDSEC
 0 
SECTION
 2 
ENTITIES
0
LINE
8
Layer 1
10
0.793749
20
297.793749
11
-0.793749
21
296.206251
0
LINE
8
Layer 1
10
0.000000
20
298.322915
11
0.000000
21
295.677085
0
LINE
8
Layer 1
10
2.116664
20
295.941668
11
1.058332
21
294.883336
0
LINE
8
Layer 1
10
1.587498
20
296.470834
11
0.529166
21
295.412502
0
LINE
8
Layer 1
10
1.058332
20
297.000000
11
0.000000
21
295.941668
0
LINE
8
Sketch053
10
-14.999978
20
0.000291
11
-4.999984
21
0.000291
0
LINE
8
Sketch053
10
-4.999984
20
0.000291
11
-4.999984
21
8.001281
0
LINE
8
Sketch053
10
-4.999984
20
8.001281
11
4.999984
21
8.001281
0
LINE
8
Sketch053
10
4.999984
20
0.000291
11
4.999984
21
8.001281
0
LINE
8
Sketch053
10
4.999984
20
0.000291
11
14.999978
21
0.000291
0
LINE
8
Sketch053
10
14.999978
20
0.000291
11
14.999978
21
8.001281
0
LINE
8
Sketch053
10
14.999978
20
8.001281
11
14.999978
21
56.000341
0
LINE
8
Sketch053
10
14.999978
20
56.000341
11
4.999984
21
56.000341
0
LINE
8
Sketch053
10
4.999984
20
56.000341
11
4.999984
21
48.000410
0
LINE
8
Sketch053
10
4.999984
20
48.000410
11
-4.999984
21
48.000410
0
LINE
8
Sketch053
10
-4.999984
20
48.000410
11
-4.999984
21
56.000341
0
LINE
8
Sketch053
10
-4.999984
20
56.000341
11
-14.999978
21
56.000341
0
LINE
8
Sketch053
10
-14.999978
20
56.000341
11
-14.999978
21
8.001281
0
LINE
8
Sketch053
10
-14.999978
20
0.000291
11
-14.999978
21
8.001281
0
LINE
8
Layer 1
10
-2.159114
20
19.120408
11
-2.159114
21
22.607532
0
LINE
8
Layer 1
10
-2.159114
20
22.607532
11
-1.319890
21
22.607532
0
LINE
8
Layer 1
10
-1.319890
20
22.607532
11
-1.319890
21
18.184736
0
LINE
8
Layer 1
10
-1.319890
20
18.184736
11
-8.390589
21
18.184736
0
LINE
8
Layer 1
10
-8.390589
20
18.184736
11
-8.390589
21
19.120408
0
LINE
8
Layer 1
10
-8.390589
20
19.120408
11
-2.159114
21
19.120408
0
LINE
8
Layer 1
10
-7.406672
20
24.445141
11
-7.406672
21
23.576991
0
LINE
8
Layer 1
10
-7.406672
20
23.576991
11
-8.390589
21
23.576991
0
LINE
8
Layer 1
10
-8.390589
20
23.576991
11
-8.390589
21
24.445141
0
LINE
8
Layer 1
10
-8.390589
20
24.445141
11
-7.406672
21
24.445141
0
LINE
8
Layer 1
10
-1.319890
20
24.445141
11
-1.319890
21
23.576991
0
LINE
8
Layer 1
10
-1.319890
20
23.576991
11
-6.437224
21
23.576991
0
LINE
8
Layer 1
10
-6.437224
20
23.576991
11
-6.437224
21
24.445141
0
LINE
8
Layer 1
10
-6.437224
20
24.445141
11
-1.319890
21
24.445141
0
LINE
8
Layer 1
10
-6.437224
20
26.784372
11
-6.437224
21
27.753804
0
LINE
8
Layer 1
10
-6.437224
20
27.753804
11
-5.766810
21
27.753804
0
LINE
8
Layer 1
10
-5.766810
20
27.753804
11
-5.766810
21
26.784372
0
LINE
8
Layer 1
10
-5.766810
20
26.784372
11
-2.665542
21
26.784372
0
LINE
8
Layer 1
10
-2.665542
20
26.784372
11
-2.241107
21
26.832605
0
LINE
8
Layer 1
10
-2.241107
20
26.832605
11
-2.053005
21
26.986937
0
LINE
8
Layer 1
10
-2.053005
20
26.986937
11
-2.009597
21
27.266680
0
LINE
8
Layer 1
10
-2.009597
20
27.266680
11
-2.072298
21
27.753804
0
LINE
8
Layer 1
10
-2.072298
20
27.753804
11
-1.348829
21
27.869559
0
LINE
8
Layer 1
10
-1.348829
20
27.869559
11
-1.262013
21
27.121980
0
LINE
8
Layer 1
10
-1.262013
20
27.121980
11
-1.397060
21
26.398504
0
LINE
8
Layer 1
10
-1.397060
20
26.398504
11
-1.807026
21
26.027135
0
LINE
8
Layer 1
10
-1.807026
20
26.027135
11
-2.747535
21
25.916196
0
LINE
8
Layer 1
10
-2.747535
20
25.916196
11
-5.766810
21
25.916196
0
LINE
8
Layer 1
10
-5.766810
20
25.916196
11
-5.766810
21
25.183089
0
LINE
8
Layer 1
10
-5.766810
20
25.183089
11
-6.437224
21
25.183089
0
LINE
8
Layer 1
10
-6.437224
20
25.183089
11
-6.437224
21
25.916196
0
LINE
8
Layer 1
10
-6.437224
20
25.916196
11
-7.614066
21
25.916196
0
LINE
8
Layer 1
10
-7.614066
20
25.916196
11
-8.236249
21
26.784372
0
LINE
8
Layer 1
10
-8.236249
20
26.784372
11
-6.437224
21
26.784372
0
LINE
8
Layer 1
10
-5.872919
20
32.422596
11
-2.072298
21
29.485315
0
LINE
8
Layer 1
10
-2.072298
20
29.485315
11
-2.072298
21
32.538351
0
LINE
8
Layer 1
10
-2.072298
20
32.538351
11
-1.319890
21
32.538351
0
LINE
8
Layer 1
10
-1.319890
20
32.538351
11
-1.319890
21
28.380813
0
LINE
8
Layer 1
10
-1.319890
20
28.380813
11
-2.019243
21
28.380813
0
LINE
8
Layer 1
10
-2.019243
20
28.380813
11
-5.723402
21
31.236113
0
LINE
8
Layer 1
10
-5.723402
20
31.236113
11
-5.723402
21
28.539986
0
LINE
8
Layer 1
10
-5.723402
20
28.539986
11
-6.437224
21
28.539986
0
LINE
8
Layer 1
10
-6.437224
20
28.539986
11
-6.437224
21
32.422596
0
LINE
8
Layer 1
10
-6.437224
20
32.422596
11
-5.872919
21
32.422596
0
LINE
8
Layer 1
10
-1.913134
20
35.533510
11
-1.985481
21
35.991706
0
LINE
8
Layer 1
10
-1.985481
20
35.991706
11
-2.202522
21
36.382380
0
LINE
8
Layer 1
10
-2.202522
20
36.382380
11
-2.969399
21
36.883984
0
LINE
8
Layer 1
10
-2.969399
20
36.883984
11
-2.839174
21
37.732853
0
LINE
8
Layer 1
10
-2.839174
20
37.732853
11
-2.148262
21
37.420556
0
LINE
8
Layer 1
10
-2.148262
20
37.420556
11
-1.628570
21
36.917745
0
LINE
8
Layer 1
10
-1.628570
20
36.917745
11
-1.306627
21
36.264212
0
LINE
8
Layer 1
10
-1.306627
20
36.264212
11
-1.199312
21
35.490100
0
LINE
8
Layer 1
10
-1.199312
20
35.490100
11
-1.280099
21
34.804011
0
LINE
8
Layer 1
10
-1.280099
20
34.804011
11
-1.522461
21
34.211973
0
LINE
8
Layer 1
10
-1.522461
20
34.211973
11
-1.913134
21
33.733278
0
LINE
8
Layer 1
10
-1.913134
20
33.733278
11
-2.438855
21
33.377574
0
LINE
8
Layer 1
10
-2.438855
20
33.377574
11
-3.087565
21
33.156916
0
LINE
8
Layer 1
10
-3.087565
20
33.156916
11
-3.837561
21
33.083363
0
LINE
8
Layer 1
10
-3.837561
20
33.083363
11
-4.609261
21
33.155710
0
LINE
8
Layer 1
10
-4.609261
20
33.155710
11
-5.274852
21
33.372751
0
LINE
8
Layer 1
10
-5.274852
20
33.372751
11
-5.817453
21
33.724838
0
LINE
8
Layer 1
10
-5.817453
20
33.724838
11
-6.220184
21
34.202327
0
LINE
8
Layer 1
10
-6.220184
20
34.202327
11
-6.469780
21
34.794365
0
LINE
8
Layer 1
10
-6.469780
20
34.794365
11
-6.552979
21
35.480456
0
LINE
8
Layer 1
10
-6.552979
20
35.480456
11
-6.473398
21
36.143634
0
LINE
8
Layer 1
10
-6.473398
20
36.143634
11
-6.234653
21
36.715175
0
LINE
8
Layer 1
10
-6.234653
20
36.715175
11
-5.846392
21
37.180607
0
LINE
8
Layer 1
10
-5.846392
20
37.180607
11
-5.308613
21
37.525460
0
LINE
8
Layer 1
10
-5.308613
20
37.525460
11
-4.634582
21
37.738883
0
LINE
8
Layer 1
10
-4.634582
20
37.738883
11
-3.837561
21
37.810024
0
LINE
8
Layer 1
10
-3.837561
20
37.810024
11
-3.659105
21
37.810024
0
LINE
8
Layer 1
10
-3.659105
20
37.810024
11
-3.659105
21
33.980463
0
LINE
8
Layer 1
10
-3.659105
20
33.980463
11
-2.713773
21
34.207150
0
LINE
8
Layer 1
10
-2.713773
20
34.207150
11
-2.115706
21
34.742518
0
LINE
8
Layer 1
10
-2.115706
20
34.742518
11
-1.913134
21
35.533510
0
LINE
8
Layer 1
10
-1.913134
20
35.533510
11
-1.913134
21
35.533510
0
LINE
8
Layer 1
10
-5.843980
20
35.470809
11
-5.660701
21
34.776279
0
LINE
8
Layer 1
10
-5.660701
20
34.776279
11
-5.144627
21
34.265028
0
LINE
8
Layer 1
10
-5.144627
20
34.265028
11
-4.372928
21
34.009401
0
LINE
8
Layer 1
10
-4.372928
20
34.009401
11
-4.372928
21
36.893631
0
LINE
8
Layer 1
10
-4.372928
20
36.893631
11
-4.999934
21
36.742908
0
LINE
8
Layer 1
10
-4.999934
20
36.742908
11
-5.462953
21
36.445080
0
LINE
8
Layer 1
10
-5.462953
20
36.445080
11
-5.748723
21
36.018233
0
LINE
8
Layer 1
10
-5.748723
20
36.018233
11
-5.843980
21
35.470809
0
LINE
8
Layer 1
10
-5.843980
20
35.470809
11
-5.843980
21
35.470809
0
LINE
8
Layer 1
10
5.094864
20
10.221767
11
3.228315
21
10.414675
0
LINE
8
Layer 1
10
3.228315
20
10.414675
11
2.537403
21
10.684774
0
LINE
8
Layer 1
10
2.537403
20
10.684774
11
1.979126
21
11.109205
0
LINE
8
Layer 1
10
1.979126
20
11.109205
11
1.610157
21
11.713314
0
LINE
8
Layer 1
10
1.610157
20
11.713314
11
1.487168
21
12.522396
0
LINE
8
Layer 1
10
1.487168
20
12.522396
11
1.701797
21
13.528010
0
LINE
8
Layer 1
10
1.701797
20
13.528010
11
2.345684
21
14.249064
0
LINE
8
Layer 1
10
2.345684
20
14.249064
11
3.458619
21
14.683146
0
LINE
8
Layer 1
10
3.458619
20
14.683146
11
5.080395
21
14.827840
0
LINE
8
Layer 1
10
5.080395
20
14.827840
11
6.645498
21
14.687968
0
LINE
8
Layer 1
10
6.645498
20
14.687968
11
7.771698
21
14.268352
0
LINE
8
Layer 1
10
7.771698
20
14.268352
11
8.451758
21
13.554541
0
LINE
8
Layer 1
10
8.451758
20
13.554541
11
8.678445
21
12.522396
0
LINE
8
Layer 1
10
8.678445
20
12.522396
11
8.444523
21
11.454062
0
LINE
8
Layer 1
10
8.444523
20
11.454062
11
7.742759
21
10.747467
0
LINE
8
Layer 1
10
7.742759
20
10.747467
11
6.612942
21
10.353192
0
LINE
8
Layer 1
10
6.612942
20
10.353192
11
5.094864
21
10.221767
0
LINE
8
Layer 1
10
5.094864
20
10.221767
11
5.094864
21
10.221767
0
LINE
8
Layer 1
10
2.200990
20
12.507923
11
2.270925
21
12.073842
0
LINE
8
Layer 1
10
2.270925
20
12.073842
11
2.480731
21
11.726583
0
LINE
8
Layer 1
10
2.480731
20
11.726583
11
3.392301
21
11.268378
0
LINE
8
Layer 1
10
3.392301
20
11.268378
11
5.090041
21
11.114047
0
LINE
8
Layer 1
10
5.090041
20
11.114047
11
6.782957
21
11.263563
0
LINE
8
Layer 1
10
6.782957
20
11.263563
11
7.689705
21
11.716926
0
LINE
8
Layer 1
10
7.689705
20
11.716926
11
7.895893
21
12.072638
0
LINE
8
Layer 1
10
7.895893
20
12.072638
11
7.964622
21
12.522396
0
LINE
8
Layer 1
10
7.964622
20
12.522396
11
7.895893
21
12.968522
0
LINE
8
Layer 1
10
7.895893
20
12.968522
11
7.689705
21
13.323024
0
LINE
8
Layer 1
10
7.689705
20
13.323024
11
6.782957
21
13.781229
0
LINE
8
Layer 1
10
6.782957
20
13.781229
11
5.090041
21
13.935560
0
LINE
8
Layer 1
10
5.090041
20
13.935560
11
3.392301
21
13.776387
0
LINE
8
Layer 1
10
3.392301
20
13.776387
11
2.846083
21
13.582262
0
LINE
8
Layer 1
10
2.846083
20
13.582262
11
2.480731
21
13.308551
0
LINE
8
Layer 1
10
2.480731
20
13.308551
11
2.270925
21
12.954063
0
LINE
8
Layer 1
10
2.270925
20
12.954063
11
2.200990
21
12.507923
0
LINE
8
Layer 1
10
2.200990
20
12.507923
11
2.200990
21
12.507923
0
LINE
8
Layer 1
10
8.586806
20
17.046474
11
9.464614
21
16.824621
0
LINE
8
Layer 1
10
9.464614
20
16.824621
11
9.999981
21
16.207243
0
LINE
8
Layer 1
10
9.999981
20
16.207243
11
9.633423
21
15.927500
0
LINE
8
Layer 1
10
9.633423
20
15.927500
11
9.223458
21
16.351944
0
LINE
8
Layer 1
10
9.223458
20
16.351944
11
8.557867
21
16.491829
0
LINE
8
Layer 1
10
8.557867
20
16.491829
11
8.557867
21
15.956445
0
LINE
8
Layer 1
10
8.557867
20
15.956445
11
7.472664
21
15.956445
0
LINE
8
Layer 1
10
7.472664
20
15.956445
11
7.472664
21
17.046474
0
LINE
8
Layer 1
10
7.472664
20
17.046474
11
8.586806
21
17.046474
0
LINE
8
Layer 1
10
2.442146
20
22.496619
11
2.442146
21
19.679895
0
LINE
8
Layer 1
10
2.442146
20
19.679895
11
4.327987
21
19.395336
0
LINE
8
Layer 1
10
4.327987
20
19.395336
11
4.000015
21
19.993399
0
LINE
8
Layer 1
10
4.000015
20
19.993399
11
3.884260
21
20.707218
0
LINE
8
Layer 1
10
3.884260
20
20.707218
11
3.955401
21
21.272731
0
LINE
8
Layer 1
10
3.955401
20
21.272731
11
4.168824
21
21.782774
0
LINE
8
Layer 1
10
4.168824
20
21.782774
11
4.508854
21
22.218073
0
LINE
8
Layer 1
10
4.508854
20
22.218073
11
4.969463
21
22.549668
0
LINE
8
Layer 1
10
4.969463
20
22.549668
11
5.531357
21
22.763087
0
LINE
8
Layer 1
10
5.531357
20
22.763087
11
6.175244
21
22.834227
0
LINE
8
Layer 1
10
6.175244
20
22.834227
11
6.867362
21
22.760673
0
LINE
8
Layer 1
10
6.867362
20
22.760673
11
7.477487
21
22.540011
0
LINE
8
Layer 1
10
7.477487
20
22.540011
11
7.980298
21
22.183095
0
LINE
8
Layer 1
10
7.980298
20
22.183095
11
8.360119
21
21.700780
0
LINE
8
Layer 1
10
8.360119
20
21.700780
11
8.598863
21
21.108742
0
LINE
8
Layer 1
10
8.598863
20
21.108742
11
8.678445
21
20.422659
0
LINE
8
Layer 1
10
8.678445
20
20.422659
11
8.555455
21
19.583435
0
LINE
8
Layer 1
10
8.555455
20
19.583435
11
8.186486
21
18.917843
0
LINE
8
Layer 1
10
8.186486
20
18.917843
11
7.586007
21
18.446383
0
LINE
8
Layer 1
10
7.586007
20
18.446383
11
6.768488
21
18.189552
0
LINE
8
Layer 1
10
6.768488
20
18.189552
11
6.633440
21
19.057728
0
LINE
8
Layer 1
10
6.633440
20
19.057728
11
7.209804
21
19.233768
0
LINE
8
Layer 1
10
7.209804
20
19.233768
11
7.627004
21
19.530379
0
LINE
8
Layer 1
10
7.627004
20
19.530379
11
7.880218
21
19.935522
0
LINE
8
Layer 1
10
7.880218
20
19.935522
11
7.964622
21
20.427474
0
LINE
8
Layer 1
10
7.964622
20
20.427474
11
7.742759
21
21.189553
0
LINE
8
Layer 1
10
7.742759
20
21.189553
11
7.130222
21
21.715253
0
LINE
8
Layer 1
10
7.130222
20
21.715253
11
6.257237
21
21.903371
0
LINE
8
Layer 1
10
6.257237
20
21.903371
11
5.408367
21
21.720095
0
LINE
8
Layer 1
10
5.408367
20
21.720095
11
4.853708
21
21.218472
0
LINE
8
Layer 1
10
4.853708
20
21.218472
11
4.655960
21
20.470892
0
LINE
8
Layer 1
10
4.655960
20
20.470892
11
4.853708
21
19.747417
0
LINE
8
Layer 1
10
4.853708
20
19.747417
11
5.355313
21
19.197587
0
LINE
8
Layer 1
10
5.355313
20
19.197587
11
5.239558
21
18.425877
0
LINE
8
Layer 1
10
5.239558
20
18.425877
11
1.602923
21
18.970892
0
LINE
8
Layer 1
10
1.602923
20
18.970892
11
1.602923
21
22.496619
0
LINE
8
Layer 1
10
1.602923
20
22.496619
11
2.442146
21
22.496619
0
LINE
8
Layer 1
10
3.324778
20
31.901698
11
3.432092
21
32.622754
0
LINE
8
Layer 1
10
3.432092
20
32.622754
11
3.754036
21
33.146061
0
LINE
8
Layer 1
10
3.754036
20
33.146061
11
4.282168
21
33.464388
0
LINE
8
Layer 1
10
4.282168
20
33.464388
11
5.008048
21
33.570497
0
LINE
8
Layer 1
10
5.008048
20
33.570497
11
8.557867
21
33.570497
0
LINE
8
Layer 1
10
8.557867
20
33.570497
11
8.557867
21
32.702334
0
LINE
8
Layer 1
10
8.557867
20
32.702334
11
5.273320
21
32.702334
0
LINE
8
Layer 1
10
5.273320
20
32.702334
11
4.716249
21
32.644457
0
LINE
8
Layer 1
10
4.716249
20
32.644457
11
4.347280
21
32.470824
0
LINE
8
Layer 1
10
4.347280
20
32.470824
11
4.141091
21
32.177812
0
LINE
8
Layer 1
10
4.141091
20
32.177812
11
4.072362
21
31.761813
0
LINE
8
Layer 1
10
4.072362
20
31.761813
11
4.245994
21
31.134831
0
LINE
8
Layer 1
10
4.245994
20
31.134831
11
4.786184
21
30.691099
0
LINE
8
Layer 1
10
4.786184
20
30.691099
11
5.702578
21
30.527110
0
LINE
8
Layer 1
10
5.702578
20
30.527110
11
8.557867
21
30.527110
0
LINE
8
Layer 1
10
8.557867
20
30.527110
11
8.557867
21
29.658934
0
LINE
8
Layer 1
10
8.557867
20
29.658934
11
5.196150
21
29.658934
0
LINE
8
Layer 1
10
5.196150
20
29.658934
11
4.696956
21
29.599853
0
LINE
8
Layer 1
10
4.696956
20
29.599853
11
4.347280
21
29.422608
0
LINE
8
Layer 1
10
4.347280
20
29.422608
11
4.141091
21
29.128405
0
LINE
8
Layer 1
10
4.141091
20
29.128405
11
4.072362
21
28.718447
0
LINE
8
Layer 1
10
4.072362
20
28.718447
11
4.236348
21
28.101069
0
LINE
8
Layer 1
10
4.236348
20
28.101069
11
4.766892
21
27.652522
0
LINE
8
Layer 1
10
4.766892
20
27.652522
11
5.702578
21
27.483718
0
LINE
8
Layer 1
10
5.702578
20
27.483718
11
8.557867
21
27.483718
0
LINE
8
Layer 1
10
8.557867
20
27.483718
11
8.557867
21
26.615541
0
LINE
8
Layer 1
10
8.557867
20
26.615541
11
3.440533
21
26.615541
0
LINE
8
Layer 1
10
3.440533
20
26.615541
11
3.440533
21
27.425827
0
LINE
8
Layer 1
10
3.440533
20
27.425827
11
4.154355
21
27.425827
0
LINE
8
Layer 1
10
4.154355
20
27.425827
11
3.532172
21
28.055250
0
LINE
8
Layer 1
10
3.532172
20
28.055250
11
3.324778
21
28.863121
0
LINE
8
Layer 1
10
3.324778
20
28.863121
11
3.551465
21
29.851868
0
LINE
8
Layer 1
10
3.551465
20
29.851868
11
3.830000
21
30.177431
0
LINE
8
Layer 1
10
3.830000
20
30.177431
11
4.221879
21
30.401698
0
LINE
8
Layer 1
10
4.221879
20
30.401698
11
3.522526
21
31.072125
0
LINE
8
Layer 1
10
3.522526
20
31.072125
11
3.324778
21
31.901698
0
LINE
8
Layer 1
10
3.324778
20
31.901698
11
3.324778
21
31.901698
0
LINE
8
Layer 1
10
3.324778
20
40.178177
11
3.432092
21
40.899233
0
LINE
8
Layer 1
10
3.432092
20
40.899233
11
3.754036
21
41.422543
0
LINE
8
Layer 1
10
3.754036
20
41.422543
11
4.282168
21
41.740868
0
LINE
8
Layer 1
10
4.282168
20
41.740868
11
5.008048
21
41.846976
0
LINE
8
Layer 1
10
5.008048
20
41.846976
11
8.557867
21
41.846976
0
LINE
8
Layer 1
10
8.557867
20
41.846976
11
8.557867
21
40.978816
0
LINE
8
Layer 1
10
8.557867
20
40.978816
11
5.273320
21
40.978816
0
LINE
8
Layer 1
10
5.273320
20
40.978816
11
4.716249
21
40.920938
0
LINE
8
Layer 1
10
4.716249
20
40.920938
11
4.347280
21
40.747306
0
LINE
8
Layer 1
10
4.347280
20
40.747306
11
4.141091
21
40.454301
0
LINE
8
Layer 1
10
4.141091
20
40.454301
11
4.072362
21
40.038305
0
LINE
8
Layer 1
10
4.072362
20
40.038305
11
4.245994
21
39.411299
0
LINE
8
Layer 1
10
4.245994
20
39.411299
11
4.786184
21
38.967572
0
LINE
8
Layer 1
10
4.786184
20
38.967572
11
5.702578
21
38.803586
0
LINE
8
Layer 1
10
5.702578
20
38.803586
11
8.557867
21
38.803586
0
LINE
8
Layer 1
10
8.557867
20
38.803586
11
8.557867
21
37.935424
0
LINE
8
Layer 1
10
8.557867
20
37.935424
11
5.196150
21
37.935424
0
LINE
8
Layer 1
10
5.196150
20
37.935424
11
4.696956
21
37.876340
0
LINE
8
Layer 1
10
4.696956
20
37.876340
11
4.347280
21
37.699090
0
LINE
8
Layer 1
10
4.347280
20
37.699090
11
4.141091
21
37.404880
0
LINE
8
Layer 1
10
4.141091
20
37.404880
11
4.072362
21
36.994916
0
LINE
8
Layer 1
10
4.072362
20
36.994916
11
4.236348
21
36.377556
0
LINE
8
Layer 1
10
4.236348
20
36.377556
11
4.766892
21
35.929003
0
LINE
8
Layer 1
10
4.766892
20
35.929003
11
5.702578
21
35.760194
0
LINE
8
Layer 1
10
5.702578
20
35.760194
11
8.557867
21
35.760194
0
LINE
8
Layer 1
10
8.557867
20
35.760194
11
8.557867
21
34.892034
0
LINE
8
Layer 1
10
8.557867
20
34.892034
11
3.440533
21
34.892034
0
LINE
8
Layer 1
10
3.440533
20
34.892034
11
3.440533
21
35.702317
0
LINE
8
Layer 1
10
3.440533
20
35.702317
11
4.154355
21
35.702317
0
LINE
8
Layer 1
10
4.154355
20
35.702317
11
3.532172
21
36.331735
0
LINE
8
Layer 1
10
3.532172
20
36.331735
11
3.324778
21
37.139608
0
LINE
8
Layer 1
10
3.324778
20
37.139608
11
3.551465
21
38.128349
0
LINE
8
Layer 1
10
3.551465
20
38.128349
11
3.830000
21
38.453910
0
LINE
8
Layer 1
10
3.830000
20
38.453910
11
4.221879
21
38.678185
0
LINE
8
Layer 1
10
4.221879
20
38.678185
11
3.522526
21
39.348598
0
LINE
8
Layer 1
10
3.522526
20
39.348598
11
3.324778
21
40.178177
0
LINE
8
Layer 1
10
3.324778
20
40.178177
11
3.324778
21
40.178177
0
LINE
8
Layer 1
10
5.114157
20
45.445027
11
5.114157
21
42.729609
0
LINE
8
Layer 1
10
5.114157
20
42.729609
11
5.090040
21
42.729609
0
LINE
8
Layer 1
10
5.090040
20
42.729609
11
4.405156
21
42.970766
0
LINE
8
Layer 1
10
4.405156
20
42.970766
11
3.710627
21
43.703881
0
LINE
8
Layer 1
10
3.710627
20
43.703881
11
3.209022
21
44.364648
0
LINE
8
Layer 1
10
3.209022
20
44.364648
11
2.856934
21
44.673329
0
LINE
8
Layer 1
10
2.856934
20
44.673329
11
2.509669
21
44.760144
0
LINE
8
Layer 1
10
2.509669
20
44.760144
11
2.162404
21
44.591334
0
LINE
8
Layer 1
10
2.162404
20
44.591334
11
2.022533
21
44.147607
0
LINE
8
Layer 1
10
2.022533
20
44.147607
11
2.210635
21
43.655650
0
LINE
8
Layer 1
10
2.210635
20
43.655650
11
2.721886
21
43.477194
0
LINE
8
Layer 1
10
2.721886
20
43.477194
11
2.639893
21
42.801957
0
LINE
8
Layer 1
10
2.639893
20
42.801957
11
2.155169
21
42.938210
0
LINE
8
Layer 1
10
2.155169
20
42.938210
11
1.791023
21
43.221567
0
LINE
8
Layer 1
10
1.791023
20
43.221567
11
1.563131
21
43.632739
0
LINE
8
Layer 1
10
1.563131
20
43.632739
11
1.487167
21
44.152431
0
LINE
8
Layer 1
10
1.487167
20
44.152431
11
1.627037
21
44.832491
0
LINE
8
Layer 1
10
1.627037
20
44.832491
11
1.998418
21
45.281041
0
LINE
8
Layer 1
10
1.998418
20
45.281041
11
2.519315
21
45.435381
0
LINE
8
Layer 1
10
2.519315
20
45.435381
11
3.131852
21
45.242457
0
LINE
8
Layer 1
10
3.131852
20
45.242457
11
3.725096
21
44.649212
0
LINE
8
Layer 1
10
3.725096
20
44.649212
11
4.202585
21
44.007738
0
LINE
8
Layer 1
10
4.202585
20
44.007738
11
4.525734
21
43.655650
0
LINE
8
Layer 1
10
4.525734
20
43.655650
11
4.525734
21
45.445027
0
LINE
8
Layer 1
10
4.525734
20
45.445027
11
5.114157
21
45.445027
 0 
ENDSEC
 0 
EOF