999
FreeCAD v2023.1102 14555 (Git shallow)
  0
SECTION
  2
HEADER
  9
$ACADVER
  1
AC1014
  9
$ACADMAINTVER
 70
     9
  9
$DWGCODEPAGE
  3
ANSI_1252
  9
$TEXTSTYLE
  7
STANDARD
  9
$DIMSTYLE
  2
STANDARD
  9
$DIMTXSTY
  7
STANDARD
  9
$CMLSTYLE
  2
STANDARD
  9
$LUNITS
 70
2
  9
$INSUNITS
 70
4
  9
$PEXTMAX
 10
50
 20
50
 30
50
  9
$PEXTMIN
 10
0
 20
0
 30
0
  9
$HANDSEED
  5
FFFF
  0
ENDSEC
  0
SECTION
  2
CLASSES
  0
CLASS
  1
ACDBDICTIONARYWDFLT
  2
AcDbDictionaryWithDefault
  3
ObjectDBX Classes
 90
        0
280
     0
281
     0
  0
CLASS
  1
XRECORD
  2
AcDbXrecord
  3
ObjectDBX Classes
 90
        0
280
     0
281
     0
  0
CLASS
  1
LWPOLYLINE
  2
AcDbPolyline
  3
ObjectDBX Classes
 90
        0
280
     0
281
     1
  0
ENDSEC
  0
SECTION
  2
TABLES
  0
TABLE
  2
VPORT
  5
20
330
0
100
AcDbSymbolTable
 70
     1
  0
VPORT
  5
21
330
20
100
AcDbSymbolTableRecord
100
AcDbViewportTableRecord
  2
*ACTIVE
 70
     0
  0
ENDTAB
  0
TABLE
  2
LTYPE
  5
22
330
0
100
AcDbSymbolTable
 70
     1
  0
LTYPE
  5
23
330
21
100
AcDbSymbolTableRecord
100
AcDbLinetypeTableRecord
  2
BYBLOCK
 70
     0
  3

 72
    65
 73
     0
 40
0.0
  0
LTYPE
  5
24
330
21
100
AcDbSymbolTableRecord
100
AcDbLinetypeTableRecord
  2
BYLAYER
 70
     0
  3

 72
    65
 73
     0
 40
0.0
  0
LTYPE
  5
25
330
21
100
AcDbSymbolTableRecord
100
AcDbLinetypeTableRecord
  2
CONTINUOUS
 70
     0
  3
Solid line
 72
    65
 73
     0
 40
0.0
  0
ENDTAB
  0
TABLE
  2
LAYER
  5
A2C
330
0
100
AcDbSymbolTable
 70
3
  0
LAYER
  5
A2D
330
A2C
100
AcDbSymbolTableRecord
100
AcDbLayerTableRecord
  2
0
 70
   0
 62
   7
  6
CONTINUOUS
  0
LAYER
  5
A2E
330
A2C
100
AcDbSymbolTableRecord
100
AcDbLayerTableRecord
  2
none
 70
    0
 62
    7
  6
CONTINUOUS
  0
LAYER
  5
A2F
330
A2C
100
AcDbSymbolTableRecord
100
AcDbLayerTableRecord
  2
Sketch032
 70
    0
 62
    7
  6
CONTINUOUS
  0
ENDTAB
  0
TABLE
  2
STYLE
  5
70
330
0
100
AcDbSymbolTable
 70
     2
  0
STYLE
  5
71
330
70
100
AcDbSymbolTableRecord
100
AcDbTextStyleTableRecord
  2
STANDARD
 70
     0
 40
0.0
 41
1.0
 50
0.0
 71
     0
 42
2.5
  3
arial.ttf
  4

  0
STYLE
  5
72
330
70
100
AcDbSymbolTableRecord
100
AcDbTextStyleTableRecord
  2
ANNOTATIVE
 70
     0
 40
0.0
 41
1.0
 50
0.0
 71
     0
 42
2.5
  3
arial.ttf
  4

  0
ENDTAB
  0
TABLE
  2
VIEW
  5
73
330
0
100
AcDbSymbolTable
 70
     0
  0
ENDTAB
  0
TABLE
  2
UCS
  5
74
330
0
100
AcDbSymbolTable
 70
     0
  0
ENDTAB
  0
TABLE
  2
APPID
  5
75
330
0
100
AcDbSymbolTable
 70
     2
  0
APPID
  5
76
330
75
100
AcDbSymbolTableRecord
100
AcDbRegAppTableRecord
  2
ACAD
 70
     0
  0
APPID
  5
77
330
75
100
AcDbSymbolTableRecord
100
AcDbRegAppTableRecord
  2
ACADANNOTATIVE
 70
     0
  0
ENDTAB
  0
TABLE
  2
DIMSTYLE
  5
78
330
0
100
AcDbSymbolTable
 70
     2
  0
DIMSTYLE
105
79
330
78
100
AcDbSymbolTableRecord
100
AcDbDimStyleTableRecord
  2
STANDARD
 70
     0
  3

  4

  5

  6

  7

 40
0.0
 41
2.5
 42
0.625
 43
3.75
 44
1.25
 45
0.0
 46
0.0
 47
0.0
 48
0.0
140
2.5
141
2.5
142
0.0
143
0.03937007874016
144
1.0
145
0.0
146
1.0
147
0.625
 71
     0
 72
     0
 73
     0
 74
     0
 75
     0
 76
     0
 77
     1
 78
     8
170
     0
171
     3
172
     1
173
     0
174
     0
175
     0
176
     0
177
     0
178
     0
270
     2
271
     2
272
     2
273
     2
274
     3
340
71
275
     0
280
     0
281
     0
282
     0
283
     0
284
     8
285
     0
286
     0
287
     3
288
     0
  0
ENDTAB
  0
TABLE
  2
BLOCK_RECORD
  5
A01
330
0
100
AcDbSymbolTable
  70
5
  0
BLOCK_RECORD
  5
A02
330
A01
100
AcDbSymbolTableRecord
100
AcDbBlockTableRecord
  2
*MODEL_SPACE
  0
BLOCK_RECORD
  5
A03
330
A01
100
AcDbSymbolTableRecord
100
AcDbBlockTableRecord
  2
*PAPER_SPACE
  0
ENDTAB
  0
ENDSEC
  0
SECTION
  2
BLOCKS
  0
BLOCK
  5
A04
330
A02
100
AcDbEntity
  8
0
100
AcDbBlockBegin
  2
*MODEL_SPACE
 70
   0
 10
0
 20
0
 30
0
  3
*MODEL_SPACE
  1
 
  0
ENDBLK
  5
A05
330
A02
100
AcDbEntity
  8
0
100
AcDbBlockEnd
  0
BLOCK
  5
A06
330
A03
100
AcDbEntity
 67
1
  8
0
100
AcDbBlockBegin
  2
*PAPER_SPACE
 70
   0
 10
0
 20
0
 30
0
  3
*PAPER_SPACE
  1
 
  0
ENDBLK
  5
A07
330
A03
100
AcDbEntity
 67
    1
  8
0
100
AcDbBlockEnd
  0
ENDSEC
  0
SECTION
  2
ENTITIES
  0
LINE
  5
A08
330
A02
100
AcDbEntity
  8
Sketch032
100
AcDbLine
 10
-5.37348e-14
 20
-155
 30
0
 11
8
 21
-155
 31
0
  0
SPLINE
  5
A09
330
A02
100
AcDbEntity
  8
Sketch032
100
AcDbSpline
210
0
220
0
230
1
 70
8
 71
2
 72
30
 73
27
 74
0
 40
3.14159
 40
3.14159
 40
3.14159
 40
3.25379
 40
3.25379
 40
3.36599
 40
3.36599
 40
3.47819
 40
3.47819
 40
3.59039
 40
3.59039
 40
3.70259
 40
3.70259
 40
3.81479
 40
3.81479
 40
3.92699
 40
3.92699
 40
4.03919
 40
4.03919
 40
4.15139
 40
4.15139
 40
4.26359
 40
4.26359
 40
4.37579
 40
4.37579
 40
4.48799
 40
4.48799
 40
4.71239
 40
4.71239
 40
4.71239
 10
-5.32907e-14
 20
-155
 30
0
 10
-5.32644e-14
 20
-154.994
 30
0
 10
-5.32382e-14
 20
-154.987
 30
0
 10
-5.32095e-14
 20
-154.969
 30
0
 10
-5.31808e-14
 20
-154.95
 30
0
 10
-5.31499e-14
 20
-154.919
 30
0
 10
-5.31191e-14
 20
-154.888
 30
0
 10
-5.30866e-14
 20
-154.845
 30
0
 10
-5.3054e-14
 20
-154.802
 30
0
 10
-5.30202e-14
 20
-154.748
 30
0
 10
-5.29864e-14
 20
-154.693
 30
0
 10
-5.29517e-14
 20
-154.629
 30
0
 10
-5.29169e-14
 20
-154.564
 30
0
 10
-5.28818e-14
 20
-154.489
 30
0
 10
-5.28466e-14
 20
-154.414
 30
0
 10
-5.28115e-14
 20
-154.331
 30
0
 10
-5.27763e-14
 20
-154.247
 30
0
 10
-5.27416e-14
 20
-154.156
 30
0
 10
-5.27069e-14
 20
-154.064
 30
0
 10
-5.2673e-14
 20
-153.966
 30
0
 10
-5.26392e-14
 20
-153.868
 30
0
 10
-5.26067e-14
 20
-153.764
 30
0
 10
-5.25741e-14
 20
-153.661
 30
0
 10
-5.25433e-14
 20
-153.553
 30
0
 10
-5.25125e-14
 20
-153.445
 30
0
 10
-5.24537e-14
 20
-153.225
 30
0
 10
-5.24025e-14
 20
-153
 30
0
  0
LINE
  5
A0A
330
A02
100
AcDbEntity
  8
Sketch032
100
AcDbLine
 10
-5.32907e-14
 20
-155
 30
0
 11
8
 21
-155
 31
0
  0
SPLINE
  5
A0B
330
A02
100
AcDbEntity
  8
Sketch032
100
AcDbSpline
210
0
220
0
230
1
 70
8
 71
2
 72
30
 73
27
 74
0
 40
3.14159
 40
3.14159
 40
3.14159
 40
3.25379
 40
3.25379
 40
3.36599
 40
3.36599
 40
3.47819
 40
3.47819
 40
3.59039
 40
3.59039
 40
3.70259
 40
3.70259
 40
3.81479
 40
3.81479
 40
3.92699
 40
3.92699
 40
4.03919
 40
4.03919
 40
4.15139
 40
4.15139
 40
4.26359
 40
4.26359
 40
4.37579
 40
4.37579
 40
4.48799
 40
4.48799
 40
4.71239
 40
4.71239
 40
4.71239
 10
8
 20
-155
 30
0
 10
8
 20
-154.994
 30
0
 10
8
 20
-154.987
 30
0
 10
8
 20
-154.969
 30
0
 10
8
 20
-154.95
 30
0
 10
8
 20
-154.919
 30
0
 10
8
 20
-154.888
 30
0
 10
8
 20
-154.845
 30
0
 10
8
 20
-154.802
 30
0
 10
8
 20
-154.748
 30
0
 10
8
 20
-154.693
 30
0
 10
8
 20
-154.629
 30
0
 10
8
 20
-154.564
 30
0
 10
8
 20
-154.489
 30
0
 10
8
 20
-154.414
 30
0
 10
8
 20
-154.331
 30
0
 10
8
 20
-154.247
 30
0
 10
8
 20
-154.156
 30
0
 10
8
 20
-154.064
 30
0
 10
8
 20
-153.966
 30
0
 10
8
 20
-153.868
 30
0
 10
8
 20
-153.764
 30
0
 10
8
 20
-153.661
 30
0
 10
8
 20
-153.553
 30
0
 10
8
 20
-153.445
 30
0
 10
8
 20
-153.225
 30
0
 10
8
 20
-153
 30
0
  0
LINE
  5
A0C
330
A02
100
AcDbEntity
  8
Sketch032
100
AcDbLine
 10
8
 20
-153
 30
0
 11
8
 21
-120
 31
0
  0
LINE
  5
A0D
330
A02
100
AcDbEntity
  8
Sketch032
100
AcDbLine
 10
-4.50751e-14
 20
-120
 30
0
 11
8
 21
-120
 31
0
  0
LINE
  5
A0E
330
A02
100
AcDbEntity
  8
Sketch032
100
AcDbLine
 10
-5.24025e-14
 20
-153
 30
0
 11
-4.50751e-14
 21
-120
 31
0
  0
LINE
  5
A0F
330
A02
100
AcDbEntity
  8
Sketch032
100
AcDbLine
 10
-5.24025e-14
 20
-153
 30
0
 11
8
 21
-153
 31
0
  0
SPLINE
  5
A10
330
A02
100
AcDbEntity
  8
Sketch032
100
AcDbSpline
210
0
220
0
230
1
 70
8
 71
1
 72
17
 73
15
 74
0
 40
5.99975e-16
 40
5.99975e-16
 40
0.224399
 40
0.448799
 40
0.673198
 40
0.897598
 40
1.122
 40
1.3464
 40
1.5708
 40
1.7952
 40
2.0196
 40
2.24399
 40
2.46839
 40
2.69279
 40
2.91719
 40
3.14159
 40
3.14159
 10
8
 20
-155
 30
0
 10
8
 20
-155.125
 30
0
 10
8
 20
-155.495
 30
0
 10
8
 20
-156.091
 30
0
 10
8
 20
-156.883
 30
0
 10
8
 20
-157.831
 30
0
 10
8
 20
-158.887
 30
0
 10
8
 20
-160
 30
0
 10
8
 20
-161.113
 30
0
 10
8
 20
-162.169
 30
0
 10
8
 20
-163.117
 30
0
 10
8
 20
-163.909
 30
0
 10
8
 20
-164.505
 30
0
 10
8
 20
-164.875
 30
0
 10
8
 20
-165
 30
0
  0
ARC
  5
A11
330
A02
100
AcDbEntity
  8
Sketch032
100
AcDbCircle
 10
8
 20
-154
 30
0
 40
11
100
AcDbArc
 50
-90
 51
0
  0
LINE
  5
A12
330
A02
100
AcDbEntity
  8
Sketch032
100
AcDbLine
 10
19
 20
-6
 30
0
 11
19
 21
-154
 31
0
  0
ARC
  5
A13
330
A02
100
AcDbEntity
  8
Sketch032
100
AcDbCircle
 10
14
 20
-6
 30
0
 40
5
100
AcDbArc
 50
1.01778e-14
 51
90
  0
LINE
  5
A14
330
A02
100
AcDbEntity
  8
Sketch032
100
AcDbLine
 10
-66
 20
-1
 30
0
 11
14
 21
-1
 31
0
  0
ARC
  5
A15
330
A02
100
AcDbEntity
  8
Sketch032
100
AcDbCircle
 10
-66
 20
-6
 30
0
 40
5
100
AcDbArc
 50
90
 51
180
  0
LINE
  5
A16
330
A02
100
AcDbEntity
  8
Sketch032
100
AcDbLine
 10
-71
 20
-154
 30
0
 11
-71
 21
-6
 31
0
  0
ARC
  5
A17
330
A02
100
AcDbEntity
  8
Sketch032
100
AcDbCircle
 10
-60
 20
-154
 30
0
 40
11
100
AcDbArc
 50
180
 51
-90
  0
LINE
  5
A18
330
A02
100
AcDbEntity
  8
Sketch032
100
AcDbLine
 10
-60
 20
-120
 30
0
 11
-60
 21
-165
 31
0
  0
LINE
  5
A19
330
A02
100
AcDbEntity
  8
Sketch032
100
AcDbLine
 10
-52
 20
-120
 30
0
 11
-60
 21
-120
 31
0
  0
LINE
  5
A1A
330
A02
100
AcDbEntity
  8
Sketch032
100
AcDbLine
 10
-52
 20
-165
 30
0
 11
-52
 21
-120
 31
0
  0
ARC
  5
A1B
330
A02
100
AcDbEntity
  8
Sketch032
100
AcDbCircle
 10
-52
 20
-154
 30
0
 40
11
100
AcDbArc
 50
-90
 51
0
  0
LINE
  5
A1C
330
A02
100
AcDbEntity
  8
Sketch032
100
AcDbLine
 10
-41
 20
-27
 30
0
 11
-41
 21
-154
 31
0
  0
ARC
  5
A1D
330
A02
100
AcDbEntity
  8
Sketch032
100
AcDbCircle
 10
-36
 20
-27
 30
0
 40
5
100
AcDbArc
 50
90
 51
180
  0
LINE
  5
A1E
330
A02
100
AcDbEntity
  8
Sketch032
100
AcDbLine
 10
-36
 20
-22
 30
0
 11
-16
 21
-22
 31
0
  0
ARC
  5
A1F
330
A02
100
AcDbEntity
  8
Sketch032
100
AcDbCircle
 10
-16
 20
-27
 30
0
 40
5
100
AcDbArc
 50
0
 51
90
  0
LINE
  5
A20
330
A02
100
AcDbEntity
  8
Sketch032
100
AcDbLine
 10
-11
 20
-154
 30
0
 11
-11
 21
-27
 31
0
  0
ARC
  5
A21
330
A02
100
AcDbEntity
  8
Sketch032
100
AcDbCircle
 10
-5.24025e-14
 20
-154
 30
0
 40
11
100
AcDbArc
 50
180
 51
-90
  0
LINE
  5
A22
330
A02
100
AcDbEntity
  8
Sketch032
100
AcDbLine
 10
-5.59552e-14
 20
-165
 30
0
 11
8
 21
-165
 31
0
  0
SPLINE
  5
A23
330
A02
100
AcDbEntity
  8
Sketch032
100
AcDbSpline
210
0
220
0
230
1
 70
8
 71
1
 72
17
 73
15
 74
0
 40
5.99975e-16
 40
5.99975e-16
 40
0.224399
 40
0.448799
 40
0.673198
 40
0.897598
 40
1.122
 40
1.3464
 40
1.5708
 40
1.7952
 40
2.0196
 40
2.24399
 40
2.46839
 40
2.69279
 40
2.91719
 40
3.14159
 40
3.14159
 10
-5.37348e-14
 20
-155
 30
0
 10
-5.40097e-14
 20
-155.125
 30
0
 10
-5.43264e-14
 20
-155.495
 30
0
 10
-5.46692e-14
 20
-156.091
 30
0
 10
-5.50208e-14
 20
-156.883
 30
0
 10
-5.53636e-14
 20
-157.831
 30
0
 10
-5.56804e-14
 20
-158.887
 30
0
 10
-5.59552e-14
 20
-160
 30
0
 10
-5.61745e-14
 20
-161.113
 30
0
 10
-5.6327e-14
 20
-162.169
 30
0
 10
-5.64052e-14
 20
-163.117
 30
0
 10
-5.64052e-14
 20
-163.909
 30
0
 10
-5.6327e-14
 20
-164.505
 30
0
 10
-5.61745e-14
 20
-164.875
 30
0
 10
-5.59552e-14
 20
-165
 30
0
  0
LINE
  5
A24
330
A02
100
AcDbEntity
  8
Sketch032
100
AcDbLine
 10
-60
 20
-60
 30
0
 11
-52
 21
-60
 31
0
  0
LINE
  5
A25
330
A02
100
AcDbEntity
  8
Sketch032
100
AcDbLine
 10
-52
 20
-60
 30
0
 11
-52
 21
-30
 31
0
  0
LINE
  5
A26
330
A02
100
AcDbEntity
  8
Sketch032
100
AcDbLine
 10
-52
 20
-30
 30
0
 11
-60
 21
-30
 31
0
  0
LINE
  5
A27
330
A02
100
AcDbEntity
  8
Sketch032
100
AcDbLine
 10
-60
 20
-30
 30
0
 11
-60
 21
-60
 31
0
  0
LINE
  5
A28
330
A02
100
AcDbEntity
  8
Sketch032
100
AcDbLine
 10
-2.5091e-14
 20
-30
 30
0
 11
8
 21
-30
 31
0
  0
LINE
  5
A29
330
A02
100
AcDbEntity
  8
Sketch032
100
AcDbLine
 10
8
 20
-60
 30
0
 11
8
 21
-30
 31
0
  0
LINE
  5
A2A
330
A02
100
AcDbEntity
  8
Sketch032
100
AcDbLine
 10
-3.17524e-14
 20
-60
 30
0
 11
8
 21
-60
 31
0
  0
LINE
  5
A2B
330
A02
100
AcDbEntity
  8
Sketch032
100
AcDbLine
 10
-3.17524e-14
 20
-60
 30
0
 11
-2.5091e-14
 21
-30
 31
0
  0
ENDSEC
  0
SECTION
  2
OBJECTS
  0
DICTIONARY
  5
F000
330
0
100
AcDbDictionary
  3
ACAD_GROUP
350
F001
  0
DICTIONARY
  5
F001
330
F000
100
AcDbDictionary
  0
ENDSEC
  0
EOF