999
"DXF R12 Output" (www.mydxf.blogspot.com)
 0 
SECTION
 2 
HEADER
 9 
$ACADVER
 1 
AC1009
 9 
$EXTMIN
 10 
 0 
 20 
 0 
 9 
$EXTMAX
 10 
 8.5 
 20 
 11 
 0 
ENDSEC
 0 
SECTION
 2 
ENTITIES
0
LINE
8
Layer 1
10
0.793749
20
297.793749
11
-0.793749
21
296.206251
0
LINE
8
Layer 1
10
0.000000
20
298.322915
11
0.000000
21
295.677085
0
LINE
8
Layer 1
10
2.116664
20
295.941668
11
1.058332
21
294.883336
0
LINE
8
Layer 1
10
1.587498
20
296.470834
11
0.529166
21
295.412502
0
LINE
8
Layer 1
10
1.058332
20
297.000000
11
0.000000
21
295.941668
0
LINE
8
Sketch033
10
-34.999833
20
100.000229
11
-56.000050
21
100.000229
0
LINE
8
Sketch033
10
-56.000050
20
100.000229
11
-56.000050
21
-99.998854
0
LINE
8
Sketch033
10
-56.000050
20
-99.998854
11
-34.999833
21
-99.998854
0
LINE
8
Sketch033
10
-34.999833
20
-99.998854
11
-34.999833
21
-107.999844
0
LINE
8
Sketch033
10
-34.999833
20
-107.999844
11
-14.999978
21
-107.999844
0
LINE
8
Sketch033
10
-14.999978
20
-107.999844
11
-14.999978
21
-99.998854
0
LINE
8
Sketch033
10
-14.999978
20
-99.998854
11
0.000000
21
-99.998854
0
LINE
8
Sketch033
10
0.000000
20
-99.998854
11
0.000000
21
100.000229
0
LINE
8
Sketch033
10
0.000000
20
100.000229
11
-14.999978
21
100.000229
0
LINE
8
Sketch033
10
-14.999978
20
100.000229
11
-14.999978
21
108.000161
0
LINE
8
Sketch033
10
-34.999833
20
108.000161
11
-14.999978
21
108.000161
0
LINE
8
Sketch033
10
-34.999833
20
100.000229
11
-34.999833
21
108.000161
0
LINE
8
Sketch033
10
-32.601945
20
-83.864529
11
-33.045565
21
-83.361929
0
LINE
8
Sketch033
10
-33.045565
20
-83.361929
11
-33.718509
21
-82.883420
0
LINE
8
Sketch033
10
-33.718509
20
-82.883420
11
-35.396720
21
-81.953184
0
LINE
8
Sketch033
10
-35.396720
20
-81.953184
11
-36.925271
21
-80.982847
0
LINE
8
Sketch033
10
-36.925271
20
-80.982847
11
-37.411141
21
-80.454211
0
LINE
8
Sketch033
10
-37.411141
20
-80.454211
11
-37.592856
21
-79.881434
0
LINE
8
Sketch033
10
-37.592856
20
-79.881434
11
-37.411141
21
-79.308658
0
LINE
8
Sketch033
10
-37.411141
20
-79.308658
11
-36.925271
21
-78.780023
0
LINE
8
Sketch033
10
-36.925271
20
-78.780023
11
-35.396720
21
-77.809687
0
LINE
8
Sketch033
10
-35.396720
20
-77.809687
11
-33.718509
21
-76.879451
0
LINE
8
Sketch033
10
-33.718509
20
-76.879451
11
-33.045565
21
-76.400942
0
LINE
8
Sketch033
10
-33.045565
20
-76.400942
11
-32.601945
21
-75.898341
0
LINE
8
Sketch033
10
-32.601945
20
-75.898341
11
-32.388491
21
-75.262855
0
LINE
8
Sketch033
10
-32.388491
20
-75.262855
11
-32.310562
21
-74.440814
0
LINE
8
Sketch033
10
-32.310562
20
-74.440814
11
-32.344060
21
-72.522325
0
LINE
8
Sketch033
10
-32.344060
20
-72.522325
11
-32.267999
21
-70.713394
0
LINE
8
Sketch033
10
-32.267999
20
-70.713394
11
-32.053122
21
-70.028302
0
LINE
8
Sketch033
10
-32.053122
20
-70.028302
11
-31.647940
21
-69.584544
0
LINE
8
Sketch033
10
-31.647940
20
-69.584544
11
-31.061043
21
-69.455523
0
LINE
8
Sketch033
10
-31.061043
20
-69.455523
11
-30.360296
21
-69.611979
0
LINE
8
Sketch033
10
-30.360296
20
-69.611979
11
-28.755684
21
-70.450574
0
LINE
8
Sketch033
10
-28.755684
20
-70.450574
11
-27.110971
21
-71.438830
0
LINE
8
Sketch033
10
-27.110971
20
-71.438830
11
-26.360098
21
-71.782363
0
LINE
8
Sketch033
10
-26.360098
20
-71.782363
11
-25.703024
21
-71.915249
0
LINE
8
Sketch033
10
-25.703024
20
-71.915249
11
-25.045950
21
-71.782363
0
LINE
8
Sketch033
10
-25.045950
20
-71.782363
11
-24.295077
21
-71.438830
0
LINE
8
Sketch033
10
-24.295077
20
-71.438830
11
-22.650364
21
-70.450574
0
LINE
8
Sketch033
10
-22.650364
20
-70.450574
11
-21.045752
21
-69.611979
0
LINE
8
Sketch033
10
-21.045752
20
-69.611979
11
-20.345005
21
-69.455523
0
LINE
8
Sketch033
10
-20.345005
20
-69.455523
11
-19.758108
21
-69.584544
0
LINE
8
Sketch033
10
-19.758108
20
-69.584544
11
-19.352926
21
-70.028302
0
LINE
8
Sketch033
10
-19.352926
20
-70.028302
11
-19.138049
21
-70.713394
0
LINE
8
Sketch033
10
-19.138049
20
-70.713394
11
-19.061989
21
-72.522325
0
LINE
8
Sketch033
10
-19.061989
20
-72.522325
11
-19.095486
21
-74.440814
0
LINE
8
Sketch033
10
-19.095486
20
-74.440814
11
-19.017557
21
-75.262855
0
LINE
8
Sketch033
10
-19.017557
20
-75.262855
11
-18.804103
21
-75.898341
0
LINE
8
Sketch033
10
-18.804103
20
-75.898341
11
-18.360483
21
-76.400942
0
LINE
8
Sketch033
10
-18.360483
20
-76.400942
11
-17.687539
21
-76.879451
0
LINE
8
Sketch033
10
-17.687539
20
-76.879451
11
-16.009328
21
-77.809687
0
LINE
8
Sketch033
10
-16.009328
20
-77.809687
11
-14.480777
21
-78.780023
0
LINE
8
Sketch033
10
-14.480777
20
-78.780023
11
-13.994907
21
-79.308658
0
LINE
8
Sketch033
10
-13.994907
20
-79.308658
11
-13.813192
21
-79.881434
0
LINE
8
Sketch033
10
-13.813192
20
-79.881434
11
-13.994907
21
-80.454211
0
LINE
8
Sketch033
10
-13.994907
20
-80.454211
11
-14.480777
21
-80.982847
0
LINE
8
Sketch033
10
-14.480777
20
-80.982847
11
-16.009328
21
-81.953184
0
LINE
8
Sketch033
10
-16.009328
20
-81.953184
11
-17.687539
21
-82.883420
0
LINE
8
Sketch033
10
-17.687539
20
-82.883420
11
-18.360483
21
-83.361929
0
LINE
8
Sketch033
10
-18.360483
20
-83.361929
11
-18.804103
21
-83.864529
0
LINE
8
Sketch033
10
-18.804103
20
-83.864529
11
-19.017557
21
-84.500014
0
LINE
8
Sketch033
10
-19.017557
20
-84.500014
11
-19.095486
21
-85.322056
0
LINE
8
Sketch033
10
-19.095486
20
-85.322056
11
-19.061989
21
-87.240547
0
LINE
8
Sketch033
10
-19.061989
20
-87.240547
11
-19.138049
21
-89.049479
0
LINE
8
Sketch033
10
-19.138049
20
-89.049479
11
-19.352926
21
-89.734573
0
LINE
8
Sketch033
10
-19.352926
20
-89.734573
11
-19.758108
21
-90.178332
0
LINE
8
Sketch033
10
-19.758108
20
-90.178332
11
-20.345005
21
-90.307350
0
LINE
8
Sketch033
10
-20.345005
20
-90.307350
11
-21.045752
21
-90.150892
0
LINE
8
Sketch033
10
-21.045752
20
-90.150892
11
-22.650364
21
-89.312297
0
LINE
8
Sketch033
10
-22.650364
20
-89.312297
11
-24.295077
21
-88.324041
0
LINE
8
Sketch033
10
-24.295077
20
-88.324041
11
-25.045950
21
-87.980509
0
LINE
8
Sketch033
10
-25.045950
20
-87.980509
11
-25.703024
21
-87.847624
0
LINE
8
Sketch033
10
-25.703024
20
-87.847624
11
-26.360098
21
-87.980509
0
LINE
8
Sketch033
10
-26.360098
20
-87.980509
11
-27.110971
21
-88.324041
0
LINE
8
Sketch033
10
-27.110971
20
-88.324041
11
-28.755684
21
-89.312297
0
LINE
8
Sketch033
10
-28.755684
20
-89.312297
11
-30.360296
21
-90.150892
0
LINE
8
Sketch033
10
-30.360296
20
-90.150892
11
-31.061043
21
-90.307350
0
LINE
8
Sketch033
10
-31.061043
20
-90.307350
11
-31.647940
21
-90.178332
0
LINE
8
Sketch033
10
-31.647940
20
-90.178332
11
-32.053122
21
-89.734573
0
LINE
8
Sketch033
10
-32.053122
20
-89.734573
11
-32.267999
21
-89.049479
0
LINE
8
Sketch033
10
-32.267999
20
-89.049479
11
-32.344059
21
-87.240547
0
LINE
8
Sketch033
10
-32.344059
20
-87.240547
11
-32.310562
21
-85.322056
0
LINE
8
Sketch033
10
-32.310562
20
-85.322056
11
-32.388491
21
-84.500014
0
LINE
8
Sketch033
10
-32.388491
20
-84.500014
11
-32.601945
21
-83.864529
0
LINE
8
Sketch033
10
-32.601945
20
-83.864529
11
-32.601945
21
-83.864529
0
LINE
8
Sketch033
10
-25.703024
20
-94.481025
11
-23.520586
21
-94.317514
0
LINE
8
Sketch033
10
-23.520586
20
-94.317514
11
-21.421755
21
-93.839939
0
LINE
8
Sketch033
10
-21.421755
20
-93.839939
11
-19.435624
21
-93.067740
0
LINE
8
Sketch033
10
-19.435624
20
-93.067740
11
-17.591285
21
-92.020356
0
LINE
8
Sketch033
10
-17.591285
20
-92.020356
11
-15.917829
21
-90.717225
0
LINE
8
Sketch033
10
-15.917829
20
-90.717225
11
-14.444351
21
-89.177787
0
LINE
8
Sketch033
10
-14.444351
20
-89.177787
11
-13.199942
21
-87.421480
0
LINE
8
Sketch033
10
-13.199942
20
-87.421480
11
-12.213694
21
-85.467743
0
LINE
8
Sketch033
10
-12.213694
20
-85.467743
11
-11.529576
21
-83.388861
0
LINE
8
Sketch033
10
-11.529576
20
-83.388861
11
-11.167610
21
-81.267034
0
LINE
8
Sketch033
10
-11.167610
20
-81.267034
11
-11.120969
21
-79.136580
0
LINE
8
Sketch033
10
-11.120969
20
-79.136580
11
-11.382828
21
-77.031816
0
LINE
8
Sketch033
10
-11.382828
20
-77.031816
11
-11.946360
21
-74.987059
0
LINE
8
Sketch033
10
-11.946360
20
-74.987059
11
-12.804740
21
-73.036625
0
LINE
8
Sketch033
10
-12.804740
20
-73.036625
11
-13.951141
21
-71.214831
0
LINE
8
Sketch033
10
-13.951141
20
-71.214831
11
-15.378738
21
-69.555995
0
LINE
8
Sketch033
10
-15.378738
20
-69.555995
11
-17.037575
21
-68.128398
0
LINE
8
Sketch033
10
-17.037575
20
-68.128398
11
-18.859368
21
-66.981997
0
LINE
8
Sketch033
10
-18.859368
20
-66.981997
11
-20.809802
21
-66.123617
0
LINE
8
Sketch033
10
-20.809802
20
-66.123617
11
-22.854560
21
-65.560085
0
LINE
8
Sketch033
10
-22.854560
20
-65.560085
11
-24.959324
21
-65.298226
0
LINE
8
Sketch033
10
-24.959324
20
-65.298226
11
-27.089778
21
-65.344866
0
LINE
8
Sketch033
10
-27.089778
20
-65.344866
11
-29.211604
21
-65.706833
0
LINE
8
Sketch033
10
-29.211604
20
-65.706833
11
-31.290487
21
-66.390951
0
LINE
8
Sketch033
10
-31.290487
20
-66.390951
11
-33.244223
21
-67.377198
0
LINE
8
Sketch033
10
-33.244223
20
-67.377198
11
-35.000530
21
-68.621608
0
LINE
8
Sketch033
10
-35.000530
20
-68.621608
11
-36.539969
21
-70.095086
0
LINE
8
Sketch033
10
-36.539969
20
-70.095086
11
-37.843099
21
-71.768541
0
LINE
8
Sketch033
10
-37.843099
20
-71.768541
11
-38.890484
21
-73.612880
0
LINE
8
Sketch033
10
-38.890484
20
-73.612880
11
-39.662683
21
-75.599012
0
LINE
8
Sketch033
10
-39.662683
20
-75.599012
11
-40.140257
21
-77.697842
0
LINE
8
Sketch033
10
-40.140257
20
-77.697842
11
-40.303769
21
-79.880280
0
LINE
8
Sketch033
10
-40.303769
20
-79.880280
11
-40.020627
21
-82.742046
0
LINE
8
Sketch033
10
-40.020627
20
-82.742046
11
-39.192353
21
-85.467743
0
LINE
8
Sketch033
10
-39.192353
20
-85.467743
11
-37.850672
21
-87.980781
0
LINE
8
Sketch033
10
-37.850672
20
-87.980781
11
-36.027309
21
-90.204566
0
LINE
8
Sketch033
10
-36.027309
20
-90.204566
11
-33.803524
21
-92.027928
0
LINE
8
Sketch033
10
-33.803524
20
-92.027928
11
-31.290487
21
-93.369609
0
LINE
8
Sketch033
10
-31.290487
20
-93.369609
11
-28.564789
21
-94.197884
0
LINE
8
Sketch033
10
-28.564789
20
-94.197884
11
-25.703024
21
-94.481025
0
LINE
8
Sketch033
10
-25.703024
20
-94.481025
11
-25.703024
21
-94.481025
0
LINE
8
Sketch033
10
-21.731503
20
-82.300130
11
-21.731503
21
-83.292316
0
LINE
8
Sketch033
10
-21.731503
20
-83.292316
11
-28.020880
21
-83.292316
0
LINE
8
Sketch033
10
-28.020880
20
-83.292316
11
-27.342886
21
-84.185284
0
LINE
8
Sketch033
10
-27.342886
20
-84.185284
11
-26.824726
21
-85.282192
0
LINE
8
Sketch033
10
-26.824726
20
-85.282192
11
-27.783840
21
-85.282192
0
LINE
8
Sketch033
10
-27.783840
20
-85.282192
11
-28.720913
21
-83.832489
0
LINE
8
Sketch033
10
-28.720913
20
-83.832489
11
-29.812318
21
-82.945051
0
LINE
8
Sketch033
10
-29.812318
20
-82.945051
11
-29.812318
21
-82.300130
0
LINE
8
Sketch033
10
-29.812318
20
-82.300130
11
-21.731503
21
-82.300130
0
LINE
8
Sketch033
10
-25.689242
20
-79.742485
11
-27.822442
21
-79.521982
0
LINE
8
Sketch033
10
-27.822442
20
-79.521982
11
-28.612051
21
-79.213306
0
LINE
8
Sketch033
10
-28.612051
20
-79.213306
11
-29.250079
21
-78.728233
0
LINE
8
Sketch033
10
-29.250079
20
-78.728233
11
-29.671758
21
-78.037850
0
LINE
8
Sketch033
10
-29.671758
20
-78.037850
11
-29.812318
21
-77.113192
0
LINE
8
Sketch033
10
-29.812318
20
-77.113192
11
-29.567030
21
-75.963896
0
LINE
8
Sketch033
10
-29.567030
20
-75.963896
11
-28.831165
21
-75.139826
0
LINE
8
Sketch033
10
-28.831165
20
-75.139826
11
-27.559228
21
-74.643733
0
LINE
8
Sketch033
10
-27.559228
20
-74.643733
11
-25.705778
21
-74.478368
0
LINE
8
Sketch033
10
-25.705778
20
-74.478368
11
-23.917078
21
-74.638223
0
LINE
8
Sketch033
10
-23.917078
20
-74.638223
11
-22.630001
21
-75.117786
0
LINE
8
Sketch033
10
-22.630001
20
-75.117786
11
-22.176623
21
-75.480207
0
LINE
8
Sketch033
10
-22.176623
20
-75.480207
11
-21.852782
21
-75.933582
0
LINE
8
Sketch033
10
-21.852782
20
-75.933582
11
-21.593708
21
-77.113192
0
LINE
8
Sketch033
10
-21.593708
20
-77.113192
11
-21.660544
21
-77.775334
0
LINE
8
Sketch033
10
-21.660544
20
-77.775334
11
-21.861050
21
-78.334123
0
LINE
8
Sketch033
10
-21.861050
20
-78.334123
11
-22.195226
21
-78.789560
0
LINE
8
Sketch033
10
-22.195226
20
-78.789560
11
-22.663074
21
-79.141644
0
LINE
8
Sketch033
10
-22.663074
20
-79.141644
11
-23.954285
21
-79.592275
0
LINE
8
Sketch033
10
-23.954285
20
-79.592275
11
-25.689242
21
-79.742485
0
LINE
8
Sketch033
10
-25.689242
20
-79.742485
11
-25.689242
21
-79.742485
0
LINE
8
Sketch033
10
-28.996529
20
-77.129728
11
-28.916599
21
-77.625821
0
LINE
8
Sketch033
10
-28.916599
20
-77.625821
11
-28.676807
21
-78.022696
0
LINE
8
Sketch033
10
-28.676807
20
-78.022696
11
-28.259262
21
-78.327238
0
LINE
8
Sketch033
10
-28.259262
20
-78.327238
11
-27.635012
21
-78.546332
0
LINE
8
Sketch033
10
-27.635012
20
-78.546332
11
-25.694745
21
-78.722730
0
LINE
8
Sketch033
10
-25.694745
20
-78.722730
11
-23.759982
21
-78.551862
0
LINE
8
Sketch033
10
-23.759982
20
-78.551862
11
-23.142624
21
-78.336875
0
LINE
8
Sketch033
10
-23.142624
20
-78.336875
11
-22.723690
21
-78.033703
0
LINE
8
Sketch033
10
-22.723690
20
-78.033703
11
-22.488045
21
-77.627191
0
LINE
8
Sketch033
10
-22.488045
20
-77.627191
11
-22.409497
21
-77.113192
0
LINE
8
Sketch033
10
-22.409497
20
-77.113192
11
-22.488045
21
-76.603314
0
LINE
8
Sketch033
10
-22.488045
20
-76.603314
11
-22.723690
21
-76.198158
0
LINE
8
Sketch033
10
-22.723690
20
-76.198158
11
-23.142624
21
-75.890865
0
LINE
8
Sketch033
10
-23.142624
20
-75.890865
11
-23.759982
21
-75.674522
0
LINE
8
Sketch033
10
-23.759982
20
-75.674522
11
-25.694745
21
-75.498124
0
LINE
8
Sketch033
10
-25.694745
20
-75.498124
11
-27.635012
21
-75.680025
0
LINE
8
Sketch033
10
-27.635012
20
-75.680025
11
-28.259262
21
-75.901891
0
LINE
8
Sketch033
10
-28.259262
20
-75.901891
11
-28.676807
21
-76.214694
0
LINE
8
Sketch033
10
-28.676807
20
-76.214694
11
-28.916599
21
-76.619850
0
LINE
8
Sketch033
10
-28.916599
20
-76.619850
11
-28.996529
21
-77.129728
0
LINE
8
Sketch033
10
-28.996529
20
-77.129728
11
-28.996529
21
-77.129728
0
LINE
8
Sketch033
10
-32.601945
20
-43.427529
11
-33.045565
21
-42.924929
0
LINE
8
Sketch033
10
-33.045565
20
-42.924929
11
-33.718509
21
-42.446420
0
LINE
8
Sketch033
10
-33.718509
20
-42.446420
11
-35.396720
21
-41.516184
0
LINE
8
Sketch033
10
-35.396720
20
-41.516184
11
-36.925271
21
-40.545847
0
LINE
8
Sketch033
10
-36.925271
20
-40.545847
11
-37.411141
21
-40.017211
0
LINE
8
Sketch033
10
-37.411141
20
-40.017211
11
-37.592856
21
-39.444434
0
LINE
8
Sketch033
10
-37.592856
20
-39.444434
11
-37.411141
21
-38.871658
0
LINE
8
Sketch033
10
-37.411141
20
-38.871658
11
-36.925271
21
-38.343023
0
LINE
8
Sketch033
10
-36.925271
20
-38.343023
11
-35.396720
21
-37.372687
0
LINE
8
Sketch033
10
-35.396720
20
-37.372687
11
-33.718509
21
-36.442451
0
LINE
8
Sketch033
10
-33.718509
20
-36.442451
11
-33.045565
21
-35.963942
0
LINE
8
Sketch033
10
-33.045565
20
-35.963942
11
-32.601945
21
-35.461341
0
LINE
8
Sketch033
10
-32.601945
20
-35.461341
11
-32.388491
21
-34.825855
0
LINE
8
Sketch033
10
-32.388491
20
-34.825855
11
-32.310562
21
-34.003814
0
LINE
8
Sketch033
10
-32.310562
20
-34.003814
11
-32.344060
21
-32.085325
0
LINE
8
Sketch033
10
-32.344060
20
-32.085325
11
-32.267999
21
-30.276394
0
LINE
8
Sketch033
10
-32.267999
20
-30.276394
11
-32.053122
21
-29.591302
0
LINE
8
Sketch033
10
-32.053122
20
-29.591302
11
-31.647940
21
-29.147544
0
LINE
8
Sketch033
10
-31.647940
20
-29.147544
11
-31.061043
21
-29.018523
0
LINE
8
Sketch033
10
-31.061043
20
-29.018523
11
-30.360296
21
-29.174979
0
LINE
8
Sketch033
10
-30.360296
20
-29.174979
11
-28.755684
21
-30.013574
0
LINE
8
Sketch033
10
-28.755684
20
-30.013574
11
-27.110971
21
-31.001830
0
LINE
8
Sketch033
10
-27.110971
20
-31.001830
11
-26.360098
21
-31.345363
0
LINE
8
Sketch033
10
-26.360098
20
-31.345363
11
-25.703024
21
-31.478249
0
LINE
8
Sketch033
10
-25.703024
20
-31.478249
11
-25.045950
21
-31.345363
0
LINE
8
Sketch033
10
-25.045950
20
-31.345363
11
-24.295077
21
-31.001830
0
LINE
8
Sketch033
10
-24.295077
20
-31.001830
11
-22.650364
21
-30.013574
0
LINE
8
Sketch033
10
-22.650364
20
-30.013574
11
-21.045752
21
-29.174979
0
LINE
8
Sketch033
10
-21.045752
20
-29.174979
11
-20.345005
21
-29.018523
0
LINE
8
Sketch033
10
-20.345005
20
-29.018523
11
-19.758108
21
-29.147544
0
LINE
8
Sketch033
10
-19.758108
20
-29.147544
11
-19.352926
21
-29.591302
0
LINE
8
Sketch033
10
-19.352926
20
-29.591302
11
-19.138049
21
-30.276394
0
LINE
8
Sketch033
10
-19.138049
20
-30.276394
11
-19.061989
21
-32.085325
0
LINE
8
Sketch033
10
-19.061989
20
-32.085325
11
-19.095486
21
-34.003814
0
LINE
8
Sketch033
10
-19.095486
20
-34.003814
11
-19.017557
21
-34.825855
0
LINE
8
Sketch033
10
-19.017557
20
-34.825855
11
-18.804103
21
-35.461341
0
LINE
8
Sketch033
10
-18.804103
20
-35.461341
11
-18.360483
21
-35.963942
0
LINE
8
Sketch033
10
-18.360483
20
-35.963942
11
-17.687539
21
-36.442451
0
LINE
8
Sketch033
10
-17.687539
20
-36.442451
11
-16.009328
21
-37.372687
0
LINE
8
Sketch033
10
-16.009328
20
-37.372687
11
-14.480777
21
-38.343023
0
LINE
8
Sketch033
10
-14.480777
20
-38.343023
11
-13.994907
21
-38.871658
0
LINE
8
Sketch033
10
-13.994907
20
-38.871658
11
-13.813192
21
-39.444434
0
LINE
8
Sketch033
10
-13.813192
20
-39.444434
11
-13.994907
21
-40.017211
0
LINE
8
Sketch033
10
-13.994907
20
-40.017211
11
-14.480777
21
-40.545847
0
LINE
8
Sketch033
10
-14.480777
20
-40.545847
11
-16.009328
21
-41.516184
0
LINE
8
Sketch033
10
-16.009328
20
-41.516184
11
-17.687539
21
-42.446420
0
LINE
8
Sketch033
10
-17.687539
20
-42.446420
11
-18.360483
21
-42.924929
0
LINE
8
Sketch033
10
-18.360483
20
-42.924929
11
-18.804103
21
-43.427529
0
LINE
8
Sketch033
10
-18.804103
20
-43.427529
11
-19.017557
21
-44.063014
0
LINE
8
Sketch033
10
-19.017557
20
-44.063014
11
-19.095486
21
-44.885056
0
LINE
8
Sketch033
10
-19.095486
20
-44.885056
11
-19.061989
21
-46.803547
0
LINE
8
Sketch033
10
-19.061989
20
-46.803547
11
-19.138049
21
-48.612479
0
LINE
8
Sketch033
10
-19.138049
20
-48.612479
11
-19.352926
21
-49.297573
0
LINE
8
Sketch033
10
-19.352926
20
-49.297573
11
-19.758108
21
-49.741332
0
LINE
8
Sketch033
10
-19.758108
20
-49.741332
11
-20.345005
21
-49.870350
0
LINE
8
Sketch033
10
-20.345005
20
-49.870350
11
-21.045752
21
-49.713892
0
LINE
8
Sketch033
10
-21.045752
20
-49.713892
11
-22.650364
21
-48.875297
0
LINE
8
Sketch033
10
-22.650364
20
-48.875297
11
-24.295077
21
-47.887041
0
LINE
8
Sketch033
10
-24.295077
20
-47.887041
11
-25.045950
21
-47.543509
0
LINE
8
Sketch033
10
-25.045950
20
-47.543509
11
-25.703024
21
-47.410624
0
LINE
8
Sketch033
10
-25.703024
20
-47.410624
11
-26.360098
21
-47.543509
0
LINE
8
Sketch033
10
-26.360098
20
-47.543509
11
-27.110971
21
-47.887041
0
LINE
8
Sketch033
10
-27.110971
20
-47.887041
11
-28.755684
21
-48.875297
0
LINE
8
Sketch033
10
-28.755684
20
-48.875297
11
-30.360296
21
-49.713892
0
LINE
8
Sketch033
10
-30.360296
20
-49.713892
11
-31.061043
21
-49.870350
0
LINE
8
Sketch033
10
-31.061043
20
-49.870350
11
-31.647940
21
-49.741332
0
LINE
8
Sketch033
10
-31.647940
20
-49.741332
11
-32.053122
21
-49.297573
0
LINE
8
Sketch033
10
-32.053122
20
-49.297573
11
-32.267999
21
-48.612479
0
LINE
8
Sketch033
10
-32.267999
20
-48.612479
11
-32.344059
21
-46.803547
0
LINE
8
Sketch033
10
-32.344059
20
-46.803547
11
-32.310562
21
-44.885056
0
LINE
8
Sketch033
10
-32.310562
20
-44.885056
11
-32.388491
21
-44.063014
0
LINE
8
Sketch033
10
-32.388491
20
-44.063014
11
-32.601945
21
-43.427529
0
LINE
8
Sketch033
10
-32.601945
20
-43.427529
11
-32.601945
21
-43.427529
0
LINE
8
Sketch033
10
-25.703024
20
-54.045414
11
-23.520586
21
-53.881902
0
LINE
8
Sketch033
10
-23.520586
20
-53.881902
11
-21.421755
21
-53.404328
0
LINE
8
Sketch033
10
-21.421755
20
-53.404328
11
-19.435624
21
-52.632129
0
LINE
8
Sketch033
10
-19.435624
20
-52.632129
11
-17.591285
21
-51.584744
0
LINE
8
Sketch033
10
-17.591285
20
-51.584744
11
-15.917829
21
-50.281614
0
LINE
8
Sketch033
10
-15.917829
20
-50.281614
11
-14.444351
21
-48.742175
0
LINE
8
Sketch033
10
-14.444351
20
-48.742175
11
-13.199942
21
-46.985868
0
LINE
8
Sketch033
10
-13.199942
20
-46.985868
11
-12.213694
21
-45.032132
0
LINE
8
Sketch033
10
-12.213694
20
-45.032132
11
-11.529576
21
-42.953249
0
LINE
8
Sketch033
10
-11.529576
20
-42.953249
11
-11.167610
21
-40.831423
0
LINE
8
Sketch033
10
-11.167610
20
-40.831423
11
-11.120969
21
-38.700969
0
LINE
8
Sketch033
10
-11.120969
20
-38.700969
11
-11.382828
21
-36.596205
0
LINE
8
Sketch033
10
-11.382828
20
-36.596205
11
-11.946360
21
-34.551447
0
LINE
8
Sketch033
10
-11.946360
20
-34.551447
11
-12.804740
21
-32.601013
0
LINE
8
Sketch033
10
-12.804740
20
-32.601013
11
-13.951141
21
-30.779220
0
LINE
8
Sketch033
10
-13.951141
20
-30.779220
11
-15.378738
21
-29.120383
0
LINE
8
Sketch033
10
-15.378738
20
-29.120383
11
-17.037575
21
-27.692787
0
LINE
8
Sketch033
10
-17.037575
20
-27.692787
11
-18.859368
21
-26.546385
0
LINE
8
Sketch033
10
-18.859368
20
-26.546385
11
-20.809802
21
-25.688006
0
LINE
8
Sketch033
10
-20.809802
20
-25.688006
11
-22.854560
21
-25.124473
0
LINE
8
Sketch033
10
-22.854560
20
-25.124473
11
-24.959324
21
-24.862614
0
LINE
8
Sketch033
10
-24.959324
20
-24.862614
11
-27.089778
21
-24.909255
0
LINE
8
Sketch033
10
-27.089778
20
-24.909255
11
-29.211604
21
-25.271222
0
LINE
8
Sketch033
10
-29.211604
20
-25.271222
11
-31.290487
21
-25.955340
0
LINE
8
Sketch033
10
-31.290487
20
-25.955340
11
-33.244223
21
-26.941587
0
LINE
8
Sketch033
10
-33.244223
20
-26.941587
11
-35.000530
21
-28.185996
0
LINE
8
Sketch033
10
-35.000530
20
-28.185996
11
-36.539969
21
-29.659475
0
LINE
8
Sketch033
10
-36.539969
20
-29.659475
11
-37.843099
21
-31.332930
0
LINE
8
Sketch033
10
-37.843099
20
-31.332930
11
-38.890484
21
-33.177269
0
LINE
8
Sketch033
10
-38.890484
20
-33.177269
11
-39.662683
21
-35.163400
0
LINE
8
Sketch033
10
-39.662683
20
-35.163400
11
-40.140257
21
-37.262231
0
LINE
8
Sketch033
10
-40.140257
20
-37.262231
11
-40.303769
21
-39.444669
0
LINE
8
Sketch033
10
-40.303769
20
-39.444669
11
-40.020627
21
-42.306434
0
LINE
8
Sketch033
10
-40.020627
20
-42.306434
11
-39.192353
21
-45.032132
0
LINE
8
Sketch033
10
-39.192353
20
-45.032132
11
-37.850672
21
-47.545169
0
LINE
8
Sketch033
10
-37.850672
20
-47.545169
11
-36.027309
21
-49.768955
0
LINE
8
Sketch033
10
-36.027309
20
-49.768955
11
-33.803524
21
-51.592317
0
LINE
8
Sketch033
10
-33.803524
20
-51.592317
11
-31.290487
21
-52.933998
0
LINE
8
Sketch033
10
-31.290487
20
-52.933998
11
-28.564789
21
-53.762272
0
LINE
8
Sketch033
10
-28.564789
20
-53.762272
11
-25.703024
21
-54.045414
0
LINE
8
Sketch033
10
-25.703024
20
-54.045414
11
-25.703024
21
-54.045414
0
LINE
8
Sketch033
10
-21.731503
20
-41.864519
11
-21.731503
21
-42.856705
0
LINE
8
Sketch033
10
-21.731503
20
-42.856705
11
-28.020880
21
-42.856705
0
LINE
8
Sketch033
10
-28.020880
20
-42.856705
11
-27.342886
21
-43.749672
0
LINE
8
Sketch033
10
-27.342886
20
-43.749672
11
-26.824726
21
-44.846607
0
LINE
8
Sketch033
10
-26.824726
20
-44.846607
11
-27.783840
21
-44.846607
0
LINE
8
Sketch033
10
-27.783840
20
-44.846607
11
-28.720913
21
-43.396904
0
LINE
8
Sketch033
10
-28.720913
20
-43.396904
11
-29.812318
21
-42.509440
0
LINE
8
Sketch033
10
-29.812318
20
-42.509440
11
-29.812318
21
-41.864519
0
LINE
8
Sketch033
10
-29.812318
20
-41.864519
11
-21.731503
21
-41.864519
0
LINE
8
Sketch033
10
-28.720913
20
-34.379016
11
-28.720913
21
-37.598118
0
LINE
8
Sketch033
10
-28.720913
20
-37.598118
11
-26.565673
21
-37.923343
0
LINE
8
Sketch033
10
-26.565673
20
-37.923343
11
-26.940481
21
-37.239819
0
LINE
8
Sketch033
10
-26.940481
20
-37.239819
11
-27.072773
21
-36.424031
0
LINE
8
Sketch033
10
-27.072773
20
-36.424031
11
-26.991473
21
-35.777734
0
LINE
8
Sketch033
10
-26.991473
20
-35.777734
11
-26.747574
21
-35.194831
0
LINE
8
Sketch033
10
-26.747574
20
-35.194831
11
-26.358954
21
-34.697355
0
LINE
8
Sketch033
10
-26.358954
20
-34.697355
11
-25.832540
21
-34.318400
0
LINE
8
Sketch033
10
-25.832540
20
-34.318400
11
-25.190377
21
-34.074481
0
LINE
8
Sketch033
10
-25.190377
20
-34.074481
11
-24.454512
21
-33.993174
0
LINE
8
Sketch033
10
-24.454512
20
-33.993174
11
-23.663515
21
-34.077232
0
LINE
8
Sketch033
10
-23.663515
20
-34.077232
11
-22.966233
21
-34.329406
0
LINE
8
Sketch033
10
-22.966233
20
-34.329406
11
-22.391592
21
-34.737314
0
LINE
8
Sketch033
10
-22.391592
20
-34.737314
11
-21.957510
21
-35.288520
0
LINE
8
Sketch033
10
-21.957510
20
-35.288520
11
-21.684659
21
-35.965144
0
LINE
8
Sketch033
10
-21.684659
20
-35.965144
11
-21.593708
21
-36.749256
0
LINE
8
Sketch033
10
-21.593708
20
-36.749256
11
-21.734268
21
-37.708369
0
LINE
8
Sketch033
10
-21.734268
20
-37.708369
11
-22.155947
21
-38.469045
0
LINE
8
Sketch033
10
-22.155947
20
-38.469045
11
-22.842209
21
-39.007856
0
LINE
8
Sketch033
10
-22.842209
20
-39.007856
11
-23.776518
21
-39.301371
0
LINE
8
Sketch033
10
-23.776518
20
-39.301371
11
-23.930849
21
-38.309184
0
LINE
8
Sketch033
10
-23.930849
20
-38.309184
11
-23.272157
21
-38.107989
0
LINE
8
Sketch033
10
-23.272157
20
-38.107989
11
-22.795365
21
-37.768985
0
LINE
8
Sketch033
10
-22.795365
20
-37.768985
11
-22.505964
21
-37.305965
0
LINE
8
Sketch033
10
-22.505964
20
-37.305965
11
-22.409497
21
-36.743726
0
LINE
8
Sketch033
10
-22.409497
20
-36.743726
11
-22.663074
21
-35.872825
0
LINE
8
Sketch033
10
-22.663074
20
-35.872825
11
-23.363107
21
-35.271983
0
LINE
8
Sketch033
10
-23.363107
20
-35.271983
11
-24.360797
21
-35.057010
0
LINE
8
Sketch033
10
-24.360797
20
-35.057010
11
-25.330943
21
-35.266480
0
LINE
8
Sketch033
10
-25.330943
20
-35.266480
11
-25.964831
21
-35.839752
0
LINE
8
Sketch033
10
-25.964831
20
-35.839752
11
-26.190838
21
-36.694117
0
LINE
8
Sketch033
10
-26.190838
20
-36.694117
11
-25.964831
21
-37.520939
0
LINE
8
Sketch033
10
-25.964831
20
-37.520939
11
-25.391586
21
-38.149323
0
LINE
8
Sketch033
10
-25.391586
20
-38.149323
11
-25.523877
21
-39.031284
0
LINE
8
Sketch033
10
-25.523877
20
-39.031284
11
-29.680027
21
-38.408403
0
LINE
8
Sketch033
10
-29.680027
20
-38.408403
11
-29.680027
21
-34.379016
0
LINE
8
Sketch033
10
-29.680027
20
-34.379016
11
-28.720913
21
-34.379016
0
LINE
8
Sketch033
10
-32.601945
20
-3.319529
11
-33.045565
21
-2.816929
0
LINE
8
Sketch033
10
-33.045565
20
-2.816929
11
-33.718509
21
-2.338420
0
LINE
8
Sketch033
10
-33.718509
20
-2.338420
11
-35.396720
21
-1.408184
0
LINE
8
Sketch033
10
-35.396720
20
-1.408184
11
-36.925271
21
-0.437847
0
LINE
8
Sketch033
10
-36.925271
20
-0.437847
11
-37.411141
21
0.090789
0
LINE
8
Sketch033
10
-37.411141
20
0.090789
11
-37.592856
21
0.663566
0
LINE
8
Sketch033
10
-37.592856
20
0.663566
11
-37.411141
21
1.236342
0
LINE
8
Sketch033
10
-37.411141
20
1.236342
11
-36.925271
21
1.764977
0
LINE
8
Sketch033
10
-36.925271
20
1.764977
11
-35.396720
21
2.735313
0
LINE
8
Sketch033
10
-35.396720
20
2.735313
11
-33.718509
21
3.665549
0
LINE
8
Sketch033
10
-33.718509
20
3.665549
11
-33.045565
21
4.144058
0
LINE
8
Sketch033
10
-33.045565
20
4.144058
11
-32.601945
21
4.646659
0
LINE
8
Sketch033
10
-32.601945
20
4.646659
11
-32.388491
21
5.282145
0
LINE
8
Sketch033
10
-32.388491
20
5.282145
11
-32.310562
21
6.104186
0
LINE
8
Sketch033
10
-32.310562
20
6.104186
11
-32.344060
21
8.022675
0
LINE
8
Sketch033
10
-32.344060
20
8.022675
11
-32.267999
21
9.831606
0
LINE
8
Sketch033
10
-32.267999
20
9.831606
11
-32.053122
21
10.516698
0
LINE
8
Sketch033
10
-32.053122
20
10.516698
11
-31.647940
21
10.960456
0
LINE
8
Sketch033
10
-31.647940
20
10.960456
11
-31.061043
21
11.089477
0
LINE
8
Sketch033
10
-31.061043
20
11.089477
11
-30.360296
21
10.933021
0
LINE
8
Sketch033
10
-30.360296
20
10.933021
11
-28.755684
21
10.094426
0
LINE
8
Sketch033
10
-28.755684
20
10.094426
11
-27.110971
21
9.106170
0
LINE
8
Sketch033
10
-27.110971
20
9.106170
11
-26.360098
21
8.762637
0
LINE
8
Sketch033
10
-26.360098
20
8.762637
11
-25.703024
21
8.629751
0
LINE
8
Sketch033
10
-25.703024
20
8.629751
11
-25.045950
21
8.762637
0
LINE
8
Sketch033
10
-25.045950
20
8.762637
11
-24.295077
21
9.106170
0
LINE
8
Sketch033
10
-24.295077
20
9.106170
11
-22.650364
21
10.094426
0
LINE
8
Sketch033
10
-22.650364
20
10.094426
11
-21.045752
21
10.933021
0
LINE
8
Sketch033
10
-21.045752
20
10.933021
11
-20.345005
21
11.089477
0
LINE
8
Sketch033
10
-20.345005
20
11.089477
11
-19.758108
21
10.960456
0
LINE
8
Sketch033
10
-19.758108
20
10.960456
11
-19.352926
21
10.516698
0
LINE
8
Sketch033
10
-19.352926
20
10.516698
11
-19.138049
21
9.831606
0
LINE
8
Sketch033
10
-19.138049
20
9.831606
11
-19.061989
21
8.022675
0
LINE
8
Sketch033
10
-19.061989
20
8.022675
11
-19.095486
21
6.104186
0
LINE
8
Sketch033
10
-19.095486
20
6.104186
11
-19.017557
21
5.282145
0
LINE
8
Sketch033
10
-19.017557
20
5.282145
11
-18.804103
21
4.646659
0
LINE
8
Sketch033
10
-18.804103
20
4.646659
11
-18.360483
21
4.144058
0
LINE
8
Sketch033
10
-18.360483
20
4.144058
11
-17.687539
21
3.665549
0
LINE
8
Sketch033
10
-17.687539
20
3.665549
11
-16.009328
21
2.735313
0
LINE
8
Sketch033
10
-16.009328
20
2.735313
11
-14.480777
21
1.764977
0
LINE
8
Sketch033
10
-14.480777
20
1.764977
11
-13.994907
21
1.236342
0
LINE
8
Sketch033
10
-13.994907
20
1.236342
11
-13.813192
21
0.663566
0
LINE
8
Sketch033
10
-13.813192
20
0.663566
11
-13.994907
21
0.090789
0
LINE
8
Sketch033
10
-13.994907
20
0.090789
11
-14.480777
21
-0.437847
0
LINE
8
Sketch033
10
-14.480777
20
-0.437847
11
-16.009328
21
-1.408184
0
LINE
8
Sketch033
10
-16.009328
20
-1.408184
11
-17.687539
21
-2.338420
0
LINE
8
Sketch033
10
-17.687539
20
-2.338420
11
-18.360483
21
-2.816929
0
LINE
8
Sketch033
10
-18.360483
20
-2.816929
11
-18.804103
21
-3.319529
0
LINE
8
Sketch033
10
-18.804103
20
-3.319529
11
-19.017557
21
-3.955014
0
LINE
8
Sketch033
10
-19.017557
20
-3.955014
11
-19.095486
21
-4.777056
0
LINE
8
Sketch033
10
-19.095486
20
-4.777056
11
-19.061989
21
-6.695547
0
LINE
8
Sketch033
10
-19.061989
20
-6.695547
11
-19.138049
21
-8.504479
0
LINE
8
Sketch033
10
-19.138049
20
-8.504479
11
-19.352926
21
-9.189573
0
LINE
8
Sketch033
10
-19.352926
20
-9.189573
11
-19.758108
21
-9.633332
0
LINE
8
Sketch033
10
-19.758108
20
-9.633332
11
-20.345005
21
-9.762350
0
LINE
8
Sketch033
10
-20.345005
20
-9.762350
11
-21.045752
21
-9.605892
0
LINE
8
Sketch033
10
-21.045752
20
-9.605892
11
-22.650364
21
-8.767297
0
LINE
8
Sketch033
10
-22.650364
20
-8.767297
11
-24.295077
21
-7.779041
0
LINE
8
Sketch033
10
-24.295077
20
-7.779041
11
-25.045950
21
-7.435509
0
LINE
8
Sketch033
10
-25.045950
20
-7.435509
11
-25.703024
21
-7.302624
0
LINE
8
Sketch033
10
-25.703024
20
-7.302624
11
-26.360098
21
-7.435509
0
LINE
8
Sketch033
10
-26.360098
20
-7.435509
11
-27.110971
21
-7.779041
0
LINE
8
Sketch033
10
-27.110971
20
-7.779041
11
-28.755684
21
-8.767297
0
LINE
8
Sketch033
10
-28.755684
20
-8.767297
11
-30.360296
21
-9.605892
0
LINE
8
Sketch033
10
-30.360296
20
-9.605892
11
-31.061043
21
-9.762350
0
LINE
8
Sketch033
10
-31.061043
20
-9.762350
11
-31.647940
21
-9.633332
0
LINE
8
Sketch033
10
-31.647940
20
-9.633332
11
-32.053122
21
-9.189573
0
LINE
8
Sketch033
10
-32.053122
20
-9.189573
11
-32.267999
21
-8.504479
0
LINE
8
Sketch033
10
-32.267999
20
-8.504479
11
-32.344059
21
-6.695547
0
LINE
8
Sketch033
10
-32.344059
20
-6.695547
11
-32.310562
21
-4.777056
0
LINE
8
Sketch033
10
-32.310562
20
-4.777056
11
-32.388491
21
-3.955014
0
LINE
8
Sketch033
10
-32.388491
20
-3.955014
11
-32.601945
21
-3.319529
0
LINE
8
Sketch033
10
-32.601945
20
-3.319529
11
-32.601945
21
-3.319529
0
LINE
8
Sketch033
10
-25.703024
20
-13.937700
11
-23.520586
21
-13.774189
0
LINE
8
Sketch033
10
-23.520586
20
-13.774189
11
-21.421755
21
-13.296614
0
LINE
8
Sketch033
10
-21.421755
20
-13.296614
11
-19.435624
21
-12.524415
0
LINE
8
Sketch033
10
-19.435624
20
-12.524415
11
-17.591285
21
-11.477031
0
LINE
8
Sketch033
10
-17.591285
20
-11.477031
11
-15.917829
21
-10.173900
0
LINE
8
Sketch033
10
-15.917829
20
-10.173900
11
-14.444351
21
-8.634462
0
LINE
8
Sketch033
10
-14.444351
20
-8.634462
11
-13.199942
21
-6.878155
0
LINE
8
Sketch033
10
-13.199942
20
-6.878155
11
-12.213694
21
-4.924418
0
LINE
8
Sketch033
10
-12.213694
20
-4.924418
11
-11.529576
21
-2.845536
0
LINE
8
Sketch033
10
-11.529576
20
-2.845536
11
-11.167610
21
-0.723709
0
LINE
8
Sketch033
10
-11.167610
20
-0.723709
11
-11.120969
21
1.406745
0
LINE
8
Sketch033
10
-11.120969
20
1.406745
11
-11.382828
21
3.511509
0
LINE
8
Sketch033
10
-11.382828
20
3.511509
11
-11.946360
21
5.556266
0
LINE
8
Sketch033
10
-11.946360
20
5.556266
11
-12.804740
21
7.506700
0
LINE
8
Sketch033
10
-12.804740
20
7.506700
11
-13.951141
21
9.328494
0
LINE
8
Sketch033
10
-13.951141
20
9.328494
11
-15.378738
21
10.987330
0
LINE
8
Sketch033
10
-15.378738
20
10.987330
11
-17.037575
21
12.414927
0
LINE
8
Sketch033
10
-17.037575
20
12.414927
11
-18.859368
21
13.561328
0
LINE
8
Sketch033
10
-18.859368
20
13.561328
11
-20.809802
21
14.419708
0
LINE
8
Sketch033
10
-20.809802
20
14.419708
11
-22.854560
21
14.983240
0
LINE
8
Sketch033
10
-22.854560
20
14.983240
11
-24.959324
21
15.245099
0
LINE
8
Sketch033
10
-24.959324
20
15.245099
11
-27.089778
21
15.198458
0
LINE
8
Sketch033
10
-27.089778
20
15.198458
11
-29.211604
21
14.836492
0
LINE
8
Sketch033
10
-29.211604
20
14.836492
11
-31.290487
21
14.152374
0
LINE
8
Sketch033
10
-31.290487
20
14.152374
11
-33.244223
21
13.166127
0
LINE
8
Sketch033
10
-33.244223
20
13.166127
11
-35.000530
21
11.921717
0
LINE
8
Sketch033
10
-35.000530
20
11.921717
11
-36.539969
21
10.448239
0
LINE
8
Sketch033
10
-36.539969
20
10.448239
11
-37.843099
21
8.774784
0
LINE
8
Sketch033
10
-37.843099
20
8.774784
11
-38.890484
21
6.930445
0
LINE
8
Sketch033
10
-38.890484
20
6.930445
11
-39.662683
21
4.944313
0
LINE
8
Sketch033
10
-39.662683
20
4.944313
11
-40.140257
21
2.845483
0
LINE
8
Sketch033
10
-40.140257
20
2.845483
11
-40.303769
21
0.663045
0
LINE
8
Sketch033
10
-40.303769
20
0.663045
11
-40.020627
21
-2.198721
0
LINE
8
Sketch033
10
-40.020627
20
-2.198721
11
-39.192353
21
-4.924418
0
LINE
8
Sketch033
10
-39.192353
20
-4.924418
11
-37.850672
21
-7.437456
0
LINE
8
Sketch033
10
-37.850672
20
-7.437456
11
-36.027309
21
-9.661241
0
LINE
8
Sketch033
10
-36.027309
20
-9.661241
11
-33.803524
21
-11.484603
0
LINE
8
Sketch033
10
-33.803524
20
-11.484603
11
-31.290487
21
-12.826285
0
LINE
8
Sketch033
10
-31.290487
20
-12.826285
11
-28.564789
21
-13.654559
0
LINE
8
Sketch033
10
-28.564789
20
-13.654559
11
-25.703024
21
-13.937700
0
LINE
8
Sketch033
10
-25.703024
20
-13.937700
11
-25.703024
21
-13.937700
0
LINE
8
Sketch033
10
-22.690617
20
-4.264840
11
-22.690617
21
-0.290565
0
LINE
8
Sketch033
10
-22.690617
20
-0.290565
11
-21.731503
21
-0.290565
0
LINE
8
Sketch033
10
-21.731503
20
-0.290565
11
-21.731503
21
-5.642868
0
LINE
8
Sketch033
10
-21.731503
20
-5.642868
11
-22.423289
21
-5.527113
0
LINE
8
Sketch033
10
-22.423289
20
-5.527113
11
-23.098524
21
-5.179847
0
LINE
8
Sketch033
10
-23.098524
20
-5.179847
11
-24.570267
21
-3.746707
0
LINE
8
Sketch033
10
-24.570267
20
-3.746707
11
-25.104937
21
-3.101786
0
LINE
8
Sketch033
10
-25.104937
20
-3.101786
11
-26.471958
21
-1.756805
0
LINE
8
Sketch033
10
-26.471958
20
-1.756805
11
-27.060377
21
-1.434344
0
LINE
8
Sketch033
10
-27.060377
20
-1.434344
11
-27.624005
21
-1.326857
0
LINE
8
Sketch033
10
-27.624005
20
-1.326857
11
-28.329542
21
-1.525295
0
LINE
8
Sketch033
10
-28.329542
20
-1.525295
11
-28.820132
21
-2.070997
0
LINE
8
Sketch033
10
-28.820132
20
-2.070997
11
-29.002033
21
-2.848210
0
LINE
8
Sketch033
10
-29.002033
20
-2.848210
11
-28.897304
21
-3.484863
0
LINE
8
Sketch033
10
-28.897304
20
-3.484863
11
-28.583118
21
-3.972687
0
LINE
8
Sketch033
10
-28.583118
20
-3.972687
11
-28.071865
21
-4.293772
0
LINE
8
Sketch033
10
-28.071865
20
-4.293772
11
-27.364925
21
-4.430204
0
LINE
8
Sketch033
10
-27.364925
20
-4.430204
11
-27.524786
21
-5.460967
0
LINE
8
Sketch033
10
-27.524786
20
-5.460967
11
-28.186244
21
-5.323172
0
LINE
8
Sketch033
10
-28.186244
20
-5.323172
11
-28.748483
21
-5.053086
0
LINE
8
Sketch033
10
-28.748483
20
-5.053086
11
-29.204611
21
-4.654829
0
LINE
8
Sketch033
10
-29.204611
20
-4.654829
11
-29.536728
21
-4.143582
0
LINE
8
Sketch033
10
-29.536728
20
-4.143582
11
-29.743421
21
-3.531720
0
LINE
8
Sketch033
10
-29.743421
20
-3.531720
11
-29.812318
21
-2.831673
0
LINE
8
Sketch033
10
-29.812318
20
-2.831673
11
-29.739287
21
-2.115103
0
LINE
8
Sketch033
10
-29.739287
20
-2.115103
11
-29.520192
21
-1.497752
0
LINE
8
Sketch033
10
-29.520192
20
-1.497752
11
-29.174296
21
-0.992001
0
LINE
8
Sketch033
10
-29.174296
20
-0.992001
11
-28.720913
21
-0.621294
0
LINE
8
Sketch033
10
-28.720913
20
-0.621294
11
-28.190371
21
-0.389797
0
LINE
8
Sketch033
10
-28.190371
20
-0.389797
11
-27.601939
21
-0.312631
0
LINE
8
Sketch033
10
-27.601939
20
-0.312631
11
-26.846779
21
-0.442165
0
LINE
8
Sketch033
10
-26.846779
20
-0.442165
11
-26.102653
21
-0.830764
0
LINE
8
Sketch033
10
-26.102653
20
-0.830764
11
-24.520658
21
-2.363150
0
LINE
8
Sketch033
10
-24.520658
20
-2.363150
11
-23.897777
21
-3.112793
0
LINE
8
Sketch033
10
-23.897777
20
-3.112793
11
-23.263889
21
-3.812853
0
LINE
8
Sketch033
10
-23.263889
20
-3.812853
11
-22.690617
21
-4.264840
0
LINE
8
Sketch033
10
-22.690617
20
-4.264840
11
-22.690617
21
-4.264840
0
LINE
8
Sketch033
10
-25.689242
20
0.800840
11
-27.822442
21
1.021317
0
LINE
8
Sketch033
10
-27.822442
20
1.021317
11
-28.612051
21
1.329992
0
LINE
8
Sketch033
10
-28.612051
20
1.329992
11
-29.250079
21
1.815066
0
LINE
8
Sketch033
10
-29.250079
20
1.815066
11
-29.671758
21
2.505469
0
LINE
8
Sketch033
10
-29.671758
20
2.505469
11
-29.812318
21
3.430133
0
LINE
8
Sketch033
10
-29.812318
20
3.430133
11
-29.567030
21
4.579409
0
LINE
8
Sketch033
10
-29.567030
20
4.579409
11
-28.831165
21
5.403473
0
LINE
8
Sketch033
10
-28.831165
20
5.403473
11
-27.559228
21
5.899566
0
LINE
8
Sketch033
10
-27.559228
20
5.899566
11
-25.705778
21
6.064930
0
LINE
8
Sketch033
10
-25.705778
20
6.064930
11
-23.917078
21
5.905076
0
LINE
8
Sketch033
10
-23.917078
20
5.905076
11
-22.630001
21
5.425512
0
LINE
8
Sketch033
10
-22.630001
20
5.425512
11
-22.176623
21
5.063093
0
LINE
8
Sketch033
10
-22.176623
20
5.063093
11
-21.852782
21
4.609724
0
LINE
8
Sketch033
10
-21.852782
20
4.609724
11
-21.593708
21
3.430133
0
LINE
8
Sketch033
10
-21.593708
20
3.430133
11
-21.660544
21
2.767980
0
LINE
8
Sketch033
10
-21.660544
20
2.767980
11
-21.861050
21
2.209182
0
LINE
8
Sketch033
10
-21.861050
20
2.209182
11
-22.195226
21
1.753740
0
LINE
8
Sketch033
10
-22.195226
20
1.753740
11
-22.663074
21
1.401655
0
LINE
8
Sketch033
10
-22.663074
20
1.401655
11
-23.954285
21
0.951043
0
LINE
8
Sketch033
10
-23.954285
20
0.951043
11
-25.689242
21
0.800840
0
LINE
8
Sketch033
10
-25.689242
20
0.800840
11
-25.689242
21
0.800840
0
LINE
8
Sketch033
10
-28.996529
20
3.413597
11
-28.916599
21
2.917504
0
LINE
8
Sketch033
10
-28.916599
20
2.917504
11
-28.676807
21
2.520629
0
LINE
8
Sketch033
10
-28.676807
20
2.520629
11
-28.259262
21
2.216081
0
LINE
8
Sketch033
10
-28.259262
20
2.216081
11
-27.635012
21
1.996966
0
LINE
8
Sketch033
10
-27.635012
20
1.996966
11
-25.694745
21
1.820569
0
LINE
8
Sketch033
10
-25.694745
20
1.820569
11
-23.759982
21
1.991463
0
LINE
8
Sketch033
10
-23.759982
20
1.991463
11
-23.142624
21
2.206430
0
LINE
8
Sketch033
10
-23.142624
20
2.206430
11
-22.723690
21
2.509596
0
LINE
8
Sketch033
10
-22.723690
20
2.509596
11
-22.488045
21
2.916115
0
LINE
8
Sketch033
10
-22.488045
20
2.916115
11
-22.409497
21
3.430133
0
LINE
8
Sketch033
10
-22.409497
20
3.430133
11
-22.488045
21
3.940004
0
LINE
8
Sketch033
10
-22.488045
20
3.940004
11
-22.723690
21
4.345141
0
LINE
8
Sketch033
10
-22.723690
20
4.345141
11
-23.142624
21
4.652440
0
LINE
8
Sketch033
10
-23.142624
20
4.652440
11
-23.759982
21
4.868803
0
LINE
8
Sketch033
10
-23.759982
20
4.868803
11
-25.694745
21
5.045174
0
LINE
8
Sketch033
10
-25.694745
20
5.045174
11
-27.635012
21
4.863273
0
LINE
8
Sketch033
10
-27.635012
20
4.863273
11
-28.259262
21
4.641421
0
LINE
8
Sketch033
10
-28.259262
20
4.641421
11
-28.676807
21
4.328604
0
LINE
8
Sketch033
10
-28.676807
20
4.328604
11
-28.916599
21
3.923468
0
LINE
8
Sketch033
10
-28.916599
20
3.923468
11
-28.996529
21
3.413597
0
LINE
8
Sketch033
10
-28.996529
20
3.413597
11
-28.996529
21
3.413597
0
LINE
8
Sketch033
10
-32.601945
20
36.410071
11
-33.045565
21
36.912671
0
LINE
8
Sketch033
10
-33.045565
20
36.912671
11
-33.718509
21
37.391180
0
LINE
8
Sketch033
10
-33.718509
20
37.391180
11
-35.396720
21
38.321416
0
LINE
8
Sketch033
10
-35.396720
20
38.321416
11
-36.925271
21
39.291753
0
LINE
8
Sketch033
10
-36.925271
20
39.291753
11
-37.411141
21
39.820389
0
LINE
8
Sketch033
10
-37.411141
20
39.820389
11
-37.592856
21
40.393166
0
LINE
8
Sketch033
10
-37.592856
20
40.393166
11
-37.411141
21
40.965942
0
LINE
8
Sketch033
10
-37.411141
20
40.965942
11
-36.925271
21
41.494577
0
LINE
8
Sketch033
10
-36.925271
20
41.494577
11
-35.396720
21
42.464913
0
LINE
8
Sketch033
10
-35.396720
20
42.464913
11
-33.718509
21
43.395149
0
LINE
8
Sketch033
10
-33.718509
20
43.395149
11
-33.045565
21
43.873658
0
LINE
8
Sketch033
10
-33.045565
20
43.873658
11
-32.601945
21
44.376259
0
LINE
8
Sketch033
10
-32.601945
20
44.376259
11
-32.388491
21
45.011745
0
LINE
8
Sketch033
10
-32.388491
20
45.011745
11
-32.310562
21
45.833786
0
LINE
8
Sketch033
10
-32.310562
20
45.833786
11
-32.344060
21
47.752275
0
LINE
8
Sketch033
10
-32.344060
20
47.752275
11
-32.267999
21
49.561206
0
LINE
8
Sketch033
10
-32.267999
20
49.561206
11
-32.053122
21
50.246298
0
LINE
8
Sketch033
10
-32.053122
20
50.246298
11
-31.647940
21
50.690056
0
LINE
8
Sketch033
10
-31.647940
20
50.690056
11
-31.061043
21
50.819077
0
LINE
8
Sketch033
10
-31.061043
20
50.819077
11
-30.360296
21
50.662621
0
LINE
8
Sketch033
10
-30.360296
20
50.662621
11
-28.755684
21
49.824026
0
LINE
8
Sketch033
10
-28.755684
20
49.824026
11
-27.110971
21
48.835770
0
LINE
8
Sketch033
10
-27.110971
20
48.835770
11
-26.360098
21
48.492237
0
LINE
8
Sketch033
10
-26.360098
20
48.492237
11
-25.703024
21
48.359351
0
LINE
8
Sketch033
10
-25.703024
20
48.359351
11
-25.045950
21
48.492237
0
LINE
8
Sketch033
10
-25.045950
20
48.492237
11
-24.295077
21
48.835770
0
LINE
8
Sketch033
10
-24.295077
20
48.835770
11
-22.650364
21
49.824026
0
LINE
8
Sketch033
10
-22.650364
20
49.824026
11
-21.045752
21
50.662621
0
LINE
8
Sketch033
10
-21.045752
20
50.662621
11
-20.345005
21
50.819077
0
LINE
8
Sketch033
10
-20.345005
20
50.819077
11
-19.758108
21
50.690056
0
LINE
8
Sketch033
10
-19.758108
20
50.690056
11
-19.352926
21
50.246298
0
LINE
8
Sketch033
10
-19.352926
20
50.246298
11
-19.138049
21
49.561206
0
LINE
8
Sketch033
10
-19.138049
20
49.561206
11
-19.061989
21
47.752275
0
LINE
8
Sketch033
10
-19.061989
20
47.752275
11
-19.095486
21
45.833786
0
LINE
8
Sketch033
10
-19.095486
20
45.833786
11
-19.017557
21
45.011745
0
LINE
8
Sketch033
10
-19.017557
20
45.011745
11
-18.804103
21
44.376259
0
LINE
8
Sketch033
10
-18.804103
20
44.376259
11
-18.360483
21
43.873658
0
LINE
8
Sketch033
10
-18.360483
20
43.873658
11
-17.687539
21
43.395149
0
LINE
8
Sketch033
10
-17.687539
20
43.395149
11
-16.009328
21
42.464913
0
LINE
8
Sketch033
10
-16.009328
20
42.464913
11
-14.480777
21
41.494577
0
LINE
8
Sketch033
10
-14.480777
20
41.494577
11
-13.994907
21
40.965942
0
LINE
8
Sketch033
10
-13.994907
20
40.965942
11
-13.813192
21
40.393166
0
LINE
8
Sketch033
10
-13.813192
20
40.393166
11
-13.994907
21
39.820389
0
LINE
8
Sketch033
10
-13.994907
20
39.820389
11
-14.480777
21
39.291753
0
LINE
8
Sketch033
10
-14.480777
20
39.291753
11
-16.009328
21
38.321416
0
LINE
8
Sketch033
10
-16.009328
20
38.321416
11
-17.687539
21
37.391180
0
LINE
8
Sketch033
10
-17.687539
20
37.391180
11
-18.360483
21
36.912671
0
LINE
8
Sketch033
10
-18.360483
20
36.912671
11
-18.804103
21
36.410071
0
LINE
8
Sketch033
10
-18.804103
20
36.410071
11
-19.017557
21
35.774586
0
LINE
8
Sketch033
10
-19.017557
20
35.774586
11
-19.095486
21
34.952544
0
LINE
8
Sketch033
10
-19.095486
20
34.952544
11
-19.061989
21
33.034053
0
LINE
8
Sketch033
10
-19.061989
20
33.034053
11
-19.138049
21
31.225121
0
LINE
8
Sketch033
10
-19.138049
20
31.225121
11
-19.352926
21
30.540027
0
LINE
8
Sketch033
10
-19.352926
20
30.540027
11
-19.758108
21
30.096268
0
LINE
8
Sketch033
10
-19.758108
20
30.096268
11
-20.345005
21
29.967250
0
LINE
8
Sketch033
10
-20.345005
20
29.967250
11
-21.045752
21
30.123708
0
LINE
8
Sketch033
10
-21.045752
20
30.123708
11
-22.650364
21
30.962303
0
LINE
8
Sketch033
10
-22.650364
20
30.962303
11
-24.295077
21
31.950559
0
LINE
8
Sketch033
10
-24.295077
20
31.950559
11
-25.045950
21
32.294091
0
LINE
8
Sketch033
10
-25.045950
20
32.294091
11
-25.703024
21
32.426976
0
LINE
8
Sketch033
10
-25.703024
20
32.426976
11
-26.360098
21
32.294091
0
LINE
8
Sketch033
10
-26.360098
20
32.294091
11
-27.110971
21
31.950559
0
LINE
8
Sketch033
10
-27.110971
20
31.950559
11
-28.755684
21
30.962303
0
LINE
8
Sketch033
10
-28.755684
20
30.962303
11
-30.360296
21
30.123708
0
LINE
8
Sketch033
10
-30.360296
20
30.123708
11
-31.061043
21
29.967250
0
LINE
8
Sketch033
10
-31.061043
20
29.967250
11
-31.647940
21
30.096268
0
LINE
8
Sketch033
10
-31.647940
20
30.096268
11
-32.053122
21
30.540027
0
LINE
8
Sketch033
10
-32.053122
20
30.540027
11
-32.267999
21
31.225121
0
LINE
8
Sketch033
10
-32.267999
20
31.225121
11
-32.344059
21
33.034053
0
LINE
8
Sketch033
10
-32.344059
20
33.034053
11
-32.310562
21
34.952544
0
LINE
8
Sketch033
10
-32.310562
20
34.952544
11
-32.388491
21
35.774586
0
LINE
8
Sketch033
10
-32.388491
20
35.774586
11
-32.601945
21
36.410071
0
LINE
8
Sketch033
10
-32.601945
20
36.410071
11
-32.601945
21
36.410071
0
LINE
8
Sketch033
10
-25.703024
20
25.792792
11
-23.520586
21
25.956304
0
LINE
8
Sketch033
10
-23.520586
20
25.956304
11
-21.421755
21
26.433878
0
LINE
8
Sketch033
10
-21.421755
20
26.433878
11
-19.435624
21
27.206077
0
LINE
8
Sketch033
10
-19.435624
20
27.206077
11
-17.591285
21
28.253462
0
LINE
8
Sketch033
10
-17.591285
20
28.253462
11
-15.917829
21
29.556592
0
LINE
8
Sketch033
10
-15.917829
20
29.556592
11
-14.444351
21
31.096031
0
LINE
8
Sketch033
10
-14.444351
20
31.096031
11
-13.199942
21
32.852338
0
LINE
8
Sketch033
10
-13.199942
20
32.852338
11
-12.213694
21
34.806074
0
LINE
8
Sketch033
10
-12.213694
20
34.806074
11
-11.529576
21
36.884957
0
LINE
8
Sketch033
10
-11.529576
20
36.884957
11
-11.167610
21
39.006783
0
LINE
8
Sketch033
10
-11.167610
20
39.006783
11
-11.120969
21
41.137237
0
LINE
8
Sketch033
10
-11.120969
20
41.137237
11
-11.382828
21
43.242001
0
LINE
8
Sketch033
10
-11.382828
20
43.242001
11
-11.946360
21
45.286759
0
LINE
8
Sketch033
10
-11.946360
20
45.286759
11
-12.804740
21
47.237193
0
LINE
8
Sketch033
10
-12.804740
20
47.237193
11
-13.951141
21
49.058986
0
LINE
8
Sketch033
10
-13.951141
20
49.058986
11
-15.378738
21
50.717823
0
LINE
8
Sketch033
10
-15.378738
20
50.717823
11
-17.037575
21
52.145419
0
LINE
8
Sketch033
10
-17.037575
20
52.145419
11
-18.859368
21
53.291821
0
LINE
8
Sketch033
10
-18.859368
20
53.291821
11
-20.809802
21
54.150200
0
LINE
8
Sketch033
10
-20.809802
20
54.150200
11
-22.854560
21
54.713733
0
LINE
8
Sketch033
10
-22.854560
20
54.713733
11
-24.959324
21
54.975592
0
LINE
8
Sketch033
10
-24.959324
20
54.975592
11
-27.089778
21
54.928951
0
LINE
8
Sketch033
10
-27.089778
20
54.928951
11
-29.211604
21
54.566984
0
LINE
8
Sketch033
10
-29.211604
20
54.566984
11
-31.290487
21
53.882866
0
LINE
8
Sketch033
10
-31.290487
20
53.882866
11
-33.244223
21
52.896619
0
LINE
8
Sketch033
10
-33.244223
20
52.896619
11
-35.000530
21
51.652210
0
LINE
8
Sketch033
10
-35.000530
20
51.652210
11
-36.539969
21
50.178731
0
LINE
8
Sketch033
10
-36.539969
20
50.178731
11
-37.843099
21
48.505276
0
LINE
8
Sketch033
10
-37.843099
20
48.505276
11
-38.890484
21
46.660937
0
LINE
8
Sketch033
10
-38.890484
20
46.660937
11
-39.662683
21
44.674806
0
LINE
8
Sketch033
10
-39.662683
20
44.674806
11
-40.140257
21
42.575975
0
LINE
8
Sketch033
10
-40.140257
20
42.575975
11
-40.303769
21
40.393537
0
LINE
8
Sketch033
10
-40.303769
20
40.393537
11
-40.020627
21
37.531772
0
LINE
8
Sketch033
10
-40.020627
20
37.531772
11
-39.192353
21
34.806074
0
LINE
8
Sketch033
10
-39.192353
20
34.806074
11
-37.850672
21
32.293037
0
LINE
8
Sketch033
10
-37.850672
20
32.293037
11
-36.027309
21
30.069251
0
LINE
8
Sketch033
10
-36.027309
20
30.069251
11
-33.803524
21
28.245889
0
LINE
8
Sketch033
10
-33.803524
20
28.245889
11
-31.290487
21
26.904208
0
LINE
8
Sketch033
10
-31.290487
20
26.904208
11
-28.564789
21
26.075934
0
LINE
8
Sketch033
10
-28.564789
20
26.075934
11
-25.703024
21
25.792792
0
LINE
8
Sketch033
10
-25.703024
20
25.792792
11
-25.703024
21
25.792792
0
LINE
8
Sketch033
10
-22.690617
20
35.465668
11
-22.690617
21
39.439943
0
LINE
8
Sketch033
10
-22.690617
20
39.439943
11
-21.731503
21
39.439943
0
LINE
8
Sketch033
10
-21.731503
20
39.439943
11
-21.731503
21
34.087641
0
LINE
8
Sketch033
10
-21.731503
20
34.087641
11
-22.423289
21
34.203396
0
LINE
8
Sketch033
10
-22.423289
20
34.203396
11
-23.098524
21
34.550661
0
LINE
8
Sketch033
10
-23.098524
20
34.550661
11
-24.570267
21
35.983828
0
LINE
8
Sketch033
10
-24.570267
20
35.983828
11
-25.104937
21
36.628749
0
LINE
8
Sketch033
10
-25.104937
20
36.628749
11
-26.471958
21
37.973703
0
LINE
8
Sketch033
10
-26.471958
20
37.973703
11
-27.060377
21
38.296164
0
LINE
8
Sketch033
10
-27.060377
20
38.296164
11
-27.624005
21
38.403651
0
LINE
8
Sketch033
10
-27.624005
20
38.403651
11
-28.329542
21
38.205213
0
LINE
8
Sketch033
10
-28.329542
20
38.205213
11
-28.820132
21
37.659511
0
LINE
8
Sketch033
10
-28.820132
20
37.659511
11
-29.002033
21
36.882298
0
LINE
8
Sketch033
10
-29.002033
20
36.882298
11
-28.897304
21
36.245646
0
LINE
8
Sketch033
10
-28.897304
20
36.245646
11
-28.583118
21
35.757821
0
LINE
8
Sketch033
10
-28.583118
20
35.757821
11
-28.071865
21
35.436736
0
LINE
8
Sketch033
10
-28.071865
20
35.436736
11
-27.364925
21
35.300304
0
LINE
8
Sketch033
10
-27.364925
20
35.300304
11
-27.524786
21
34.269541
0
LINE
8
Sketch033
10
-27.524786
20
34.269541
11
-28.186244
21
34.407343
0
LINE
8
Sketch033
10
-28.186244
20
34.407343
11
-28.748483
21
34.677449
0
LINE
8
Sketch033
10
-28.748483
20
34.677449
11
-29.204611
21
35.075693
0
LINE
8
Sketch033
10
-29.204611
20
35.075693
11
-29.536728
21
35.586953
0
LINE
8
Sketch033
10
-29.536728
20
35.586953
11
-29.743421
21
36.198795
0
LINE
8
Sketch033
10
-29.743421
20
36.198795
11
-29.812318
21
36.898835
0
LINE
8
Sketch033
10
-29.812318
20
36.898835
11
-29.739287
21
37.615412
0
LINE
8
Sketch033
10
-29.739287
20
37.615412
11
-29.520192
21
38.232783
0
LINE
8
Sketch033
10
-29.520192
20
38.232783
11
-29.174296
21
38.738514
0
LINE
8
Sketch033
10
-29.174296
20
38.738514
11
-28.720913
21
39.109214
0
LINE
8
Sketch033
10
-28.720913
20
39.109214
11
-28.190371
21
39.340711
0
LINE
8
Sketch033
10
-28.190371
20
39.340711
11
-27.601939
21
39.417877
0
LINE
8
Sketch033
10
-27.601939
20
39.417877
11
-26.846779
21
39.288344
0
LINE
8
Sketch033
10
-26.846779
20
39.288344
11
-26.102653
21
38.899744
0
LINE
8
Sketch033
10
-26.102653
20
38.899744
11
-24.520658
21
37.367359
0
LINE
8
Sketch033
10
-24.520658
20
37.367359
11
-23.897777
21
36.617715
0
LINE
8
Sketch033
10
-23.897777
20
36.617715
11
-23.263889
21
35.917682
0
LINE
8
Sketch033
10
-23.263889
20
35.917682
11
-22.690617
21
35.465668
0
LINE
8
Sketch033
10
-22.690617
20
35.465668
11
-22.690617
21
35.465668
0
LINE
8
Sketch033
10
-28.720913
20
45.459206
11
-28.720913
21
42.240104
0
LINE
8
Sketch033
10
-28.720913
20
42.240104
11
-26.565673
21
41.914879
0
LINE
8
Sketch033
10
-26.565673
20
41.914879
11
-26.940481
21
42.598403
0
LINE
8
Sketch033
10
-26.940481
20
42.598403
11
-27.072773
21
43.414191
0
LINE
8
Sketch033
10
-27.072773
20
43.414191
11
-26.991473
21
44.060495
0
LINE
8
Sketch033
10
-26.991473
20
44.060495
11
-26.747574
21
44.643417
0
LINE
8
Sketch033
10
-26.747574
20
44.643417
11
-26.358954
21
45.140880
0
LINE
8
Sketch033
10
-26.358954
20
45.140880
11
-25.832540
21
45.519849
0
LINE
8
Sketch033
10
-25.832540
20
45.519849
11
-25.190377
21
45.763748
0
LINE
8
Sketch033
10
-25.190377
20
45.763748
11
-24.454512
21
45.845048
0
LINE
8
Sketch033
10
-24.454512
20
45.845048
11
-23.663515
21
45.760990
0
LINE
8
Sketch033
10
-23.663515
20
45.760990
11
-22.966233
21
45.508816
0
LINE
8
Sketch033
10
-22.966233
20
45.508816
11
-22.391592
21
45.100921
0
LINE
8
Sketch033
10
-22.391592
20
45.100921
11
-21.957510
21
44.549702
0
LINE
8
Sketch033
10
-21.957510
20
44.549702
11
-21.684659
21
43.873077
0
LINE
8
Sketch033
10
-21.684659
20
43.873077
11
-21.593708
21
43.088966
0
LINE
8
Sketch033
10
-21.593708
20
43.088966
11
-21.734268
21
42.129853
0
LINE
8
Sketch033
10
-21.734268
20
42.129853
11
-22.155947
21
41.369176
0
LINE
8
Sketch033
10
-22.155947
20
41.369176
11
-22.842209
21
40.830366
0
LINE
8
Sketch033
10
-22.842209
20
40.830366
11
-23.776518
21
40.536851
0
LINE
8
Sketch033
10
-23.776518
20
40.536851
11
-23.930849
21
41.529037
0
LINE
8
Sketch033
10
-23.930849
20
41.529037
11
-23.272157
21
41.730233
0
LINE
8
Sketch033
10
-23.272157
20
41.730233
11
-22.795365
21
42.069237
0
LINE
8
Sketch033
10
-22.795365
20
42.069237
11
-22.505964
21
42.532257
0
LINE
8
Sketch033
10
-22.505964
20
42.532257
11
-22.409497
21
43.094496
0
LINE
8
Sketch033
10
-22.409497
20
43.094496
11
-22.663074
21
43.965424
0
LINE
8
Sketch033
10
-22.663074
20
43.965424
11
-23.363107
21
44.566239
0
LINE
8
Sketch033
10
-23.363107
20
44.566239
11
-24.360797
21
44.781212
0
LINE
8
Sketch033
10
-24.360797
20
44.781212
11
-25.330943
21
44.571742
0
LINE
8
Sketch033
10
-25.330943
20
44.571742
11
-25.964831
21
43.998496
0
LINE
8
Sketch033
10
-25.964831
20
43.998496
11
-26.190838
21
43.144105
0
LINE
8
Sketch033
10
-26.190838
20
43.144105
11
-25.964831
21
42.317283
0
LINE
8
Sketch033
10
-25.964831
20
42.317283
11
-25.391586
21
41.688898
0
LINE
8
Sketch033
10
-25.391586
20
41.688898
11
-25.523877
21
40.806938
0
LINE
8
Sketch033
10
-25.523877
20
40.806938
11
-29.680027
21
41.429819
0
LINE
8
Sketch033
10
-29.680027
20
41.429819
11
-29.680027
21
45.459206
0
LINE
8
Sketch033
10
-29.680027
20
45.459206
11
-28.720913
21
45.459206
0
LINE
8
Sketch033
10
-32.601945
20
76.417671
11
-33.045565
21
76.920271
0
LINE
8
Sketch033
10
-33.045565
20
76.920271
11
-33.718509
21
77.398780
0
LINE
8
Sketch033
10
-33.718509
20
77.398780
11
-35.396720
21
78.329016
0
LINE
8
Sketch033
10
-35.396720
20
78.329016
11
-36.925271
21
79.299353
0
LINE
8
Sketch033
10
-36.925271
20
79.299353
11
-37.411141
21
79.827989
0
LINE
8
Sketch033
10
-37.411141
20
79.827989
11
-37.592856
21
80.400766
0
LINE
8
Sketch033
10
-37.592856
20
80.400766
11
-37.411141
21
80.973542
0
LINE
8
Sketch033
10
-37.411141
20
80.973542
11
-36.925271
21
81.502177
0
LINE
8
Sketch033
10
-36.925271
20
81.502177
11
-35.396720
21
82.472513
0
LINE
8
Sketch033
10
-35.396720
20
82.472513
11
-33.718509
21
83.402749
0
LINE
8
Sketch033
10
-33.718509
20
83.402749
11
-33.045565
21
83.881258
0
LINE
8
Sketch033
10
-33.045565
20
83.881258
11
-32.601945
21
84.383859
0
LINE
8
Sketch033
10
-32.601945
20
84.383859
11
-32.388491
21
85.019345
0
LINE
8
Sketch033
10
-32.388491
20
85.019345
11
-32.310562
21
85.841386
0
LINE
8
Sketch033
10
-32.310562
20
85.841386
11
-32.344060
21
87.759875
0
LINE
8
Sketch033
10
-32.344060
20
87.759875
11
-32.267999
21
89.568806
0
LINE
8
Sketch033
10
-32.267999
20
89.568806
11
-32.053122
21
90.253898
0
LINE
8
Sketch033
10
-32.053122
20
90.253898
11
-31.647940
21
90.697656
0
LINE
8
Sketch033
10
-31.647940
20
90.697656
11
-31.061043
21
90.826677
0
LINE
8
Sketch033
10
-31.061043
20
90.826677
11
-30.360296
21
90.670221
0
LINE
8
Sketch033
10
-30.360296
20
90.670221
11
-28.755684
21
89.831626
0
LINE
8
Sketch033
10
-28.755684
20
89.831626
11
-27.110971
21
88.843370
0
LINE
8
Sketch033
10
-27.110971
20
88.843370
11
-26.360098
21
88.499837
0
LINE
8
Sketch033
10
-26.360098
20
88.499837
11
-25.703024
21
88.366951
0
LINE
8
Sketch033
10
-25.703024
20
88.366951
11
-25.045950
21
88.499837
0
LINE
8
Sketch033
10
-25.045950
20
88.499837
11
-24.295077
21
88.843370
0
LINE
8
Sketch033
10
-24.295077
20
88.843370
11
-22.650364
21
89.831626
0
LINE
8
Sketch033
10
-22.650364
20
89.831626
11
-21.045752
21
90.670221
0
LINE
8
Sketch033
10
-21.045752
20
90.670221
11
-20.345005
21
90.826677
0
LINE
8
Sketch033
10
-20.345005
20
90.826677
11
-19.758108
21
90.697656
0
LINE
8
Sketch033
10
-19.758108
20
90.697656
11
-19.352926
21
90.253898
0
LINE
8
Sketch033
10
-19.352926
20
90.253898
11
-19.138049
21
89.568806
0
LINE
8
Sketch033
10
-19.138049
20
89.568806
11
-19.061989
21
87.759875
0
LINE
8
Sketch033
10
-19.061989
20
87.759875
11
-19.095486
21
85.841386
0
LINE
8
Sketch033
10
-19.095486
20
85.841386
11
-19.017557
21
85.019345
0
LINE
8
Sketch033
10
-19.017557
20
85.019345
11
-18.804103
21
84.383859
0
LINE
8
Sketch033
10
-18.804103
20
84.383859
11
-18.360483
21
83.881258
0
LINE
8
Sketch033
10
-18.360483
20
83.881258
11
-17.687539
21
83.402749
0
LINE
8
Sketch033
10
-17.687539
20
83.402749
11
-16.009328
21
82.472513
0
LINE
8
Sketch033
10
-16.009328
20
82.472513
11
-14.480777
21
81.502177
0
LINE
8
Sketch033
10
-14.480777
20
81.502177
11
-13.994907
21
80.973542
0
LINE
8
Sketch033
10
-13.994907
20
80.973542
11
-13.813192
21
80.400766
0
LINE
8
Sketch033
10
-13.813192
20
80.400766
11
-13.994907
21
79.827989
0
LINE
8
Sketch033
10
-13.994907
20
79.827989
11
-14.480777
21
79.299353
0
LINE
8
Sketch033
10
-14.480777
20
79.299353
11
-16.009328
21
78.329016
0
LINE
8
Sketch033
10
-16.009328
20
78.329016
11
-17.687539
21
77.398780
0
LINE
8
Sketch033
10
-17.687539
20
77.398780
11
-18.360483
21
76.920271
0
LINE
8
Sketch033
10
-18.360483
20
76.920271
11
-18.804103
21
76.417671
0
LINE
8
Sketch033
10
-18.804103
20
76.417671
11
-19.017557
21
75.782186
0
LINE
8
Sketch033
10
-19.017557
20
75.782186
11
-19.095486
21
74.960144
0
LINE
8
Sketch033
10
-19.095486
20
74.960144
11
-19.061989
21
73.041653
0
LINE
8
Sketch033
10
-19.061989
20
73.041653
11
-19.138049
21
71.232721
0
LINE
8
Sketch033
10
-19.138049
20
71.232721
11
-19.352926
21
70.547627
0
LINE
8
Sketch033
10
-19.352926
20
70.547627
11
-19.758108
21
70.103868
0
LINE
8
Sketch033
10
-19.758108
20
70.103868
11
-20.345005
21
69.974850
0
LINE
8
Sketch033
10
-20.345005
20
69.974850
11
-21.045752
21
70.131308
0
LINE
8
Sketch033
10
-21.045752
20
70.131308
11
-22.650364
21
70.969903
0
LINE
8
Sketch033
10
-22.650364
20
70.969903
11
-24.295077
21
71.958159
0
LINE
8
Sketch033
10
-24.295077
20
71.958159
11
-25.045950
21
72.301691
0
LINE
8
Sketch033
10
-25.045950
20
72.301691
11
-25.703024
21
72.434576
0
LINE
8
Sketch033
10
-25.703024
20
72.434576
11
-26.360098
21
72.301691
0
LINE
8
Sketch033
10
-26.360098
20
72.301691
11
-27.110971
21
71.958159
0
LINE
8
Sketch033
10
-27.110971
20
71.958159
11
-28.755684
21
70.969903
0
LINE
8
Sketch033
10
-28.755684
20
70.969903
11
-30.360296
21
70.131308
0
LINE
8
Sketch033
10
-30.360296
20
70.131308
11
-31.061043
21
69.974850
0
LINE
8
Sketch033
10
-31.061043
20
69.974850
11
-31.647940
21
70.103868
0
LINE
8
Sketch033
10
-31.647940
20
70.103868
11
-32.053122
21
70.547627
0
LINE
8
Sketch033
10
-32.053122
20
70.547627
11
-32.267999
21
71.232721
0
LINE
8
Sketch033
10
-32.267999
20
71.232721
11
-32.344059
21
73.041653
0
LINE
8
Sketch033
10
-32.344059
20
73.041653
11
-32.310562
21
74.960144
0
LINE
8
Sketch033
10
-32.310562
20
74.960144
11
-32.388491
21
75.782186
0
LINE
8
Sketch033
10
-32.388491
20
75.782186
11
-32.601945
21
76.417671
0
LINE
8
Sketch033
10
-32.601945
20
76.417671
11
-32.601945
21
76.417671
0
LINE
8
Sketch033
10
-25.703024
20
65.801459
11
-23.520586
21
65.964971
0
LINE
8
Sketch033
10
-23.520586
20
65.964971
11
-21.421755
21
66.442545
0
LINE
8
Sketch033
10
-21.421755
20
66.442545
11
-19.435624
21
67.214744
0
LINE
8
Sketch033
10
-19.435624
20
67.214744
11
-17.591285
21
68.262129
0
LINE
8
Sketch033
10
-17.591285
20
68.262129
11
-15.917829
21
69.565259
0
LINE
8
Sketch033
10
-15.917829
20
69.565259
11
-14.444351
21
71.104698
0
LINE
8
Sketch033
10
-14.444351
20
71.104698
11
-13.199942
21
72.861005
0
LINE
8
Sketch033
10
-13.199942
20
72.861005
11
-12.213694
21
74.814741
0
LINE
8
Sketch033
10
-12.213694
20
74.814741
11
-11.529576
21
76.893624
0
LINE
8
Sketch033
10
-11.529576
20
76.893624
11
-11.167610
21
79.015450
0
LINE
8
Sketch033
10
-11.167610
20
79.015450
11
-11.120969
21
81.145904
0
LINE
8
Sketch033
10
-11.120969
20
81.145904
11
-11.382828
21
83.250668
0
LINE
8
Sketch033
10
-11.382828
20
83.250668
11
-11.946360
21
85.295426
0
LINE
8
Sketch033
10
-11.946360
20
85.295426
11
-12.804740
21
87.245860
0
LINE
8
Sketch033
10
-12.804740
20
87.245860
11
-13.951141
21
89.067653
0
LINE
8
Sketch033
10
-13.951141
20
89.067653
11
-15.378738
21
90.726490
0
LINE
8
Sketch033
10
-15.378738
20
90.726490
11
-17.037575
21
92.154086
0
LINE
8
Sketch033
10
-17.037575
20
92.154086
11
-18.859368
21
93.300488
0
LINE
8
Sketch033
10
-18.859368
20
93.300488
11
-20.809802
21
94.158867
0
LINE
8
Sketch033
10
-20.809802
20
94.158867
11
-22.854560
21
94.722400
0
LINE
8
Sketch033
10
-22.854560
20
94.722400
11
-24.959324
21
94.984259
0
LINE
8
Sketch033
10
-24.959324
20
94.984259
11
-27.089778
21
94.937618
0
LINE
8
Sketch033
10
-27.089778
20
94.937618
11
-29.211604
21
94.575651
0
LINE
8
Sketch033
10
-29.211604
20
94.575651
11
-31.290487
21
93.891533
0
LINE
8
Sketch033
10
-31.290487
20
93.891533
11
-33.244223
21
92.905286
0
LINE
8
Sketch033
10
-33.244223
20
92.905286
11
-35.000530
21
91.660877
0
LINE
8
Sketch033
10
-35.000530
20
91.660877
11
-36.539969
21
90.187398
0
LINE
8
Sketch033
10
-36.539969
20
90.187398
11
-37.843099
21
88.513943
0
LINE
8
Sketch033
10
-37.843099
20
88.513943
11
-38.890484
21
86.669604
0
LINE
8
Sketch033
10
-38.890484
20
86.669604
11
-39.662683
21
84.683473
0
LINE
8
Sketch033
10
-39.662683
20
84.683473
11
-40.140257
21
82.584642
0
LINE
8
Sketch033
10
-40.140257
20
82.584642
11
-40.303769
21
80.402204
0
LINE
8
Sketch033
10
-40.303769
20
80.402204
11
-40.020627
21
77.540439
0
LINE
8
Sketch033
10
-40.020627
20
77.540439
11
-39.192353
21
74.814741
0
LINE
8
Sketch033
10
-39.192353
20
74.814741
11
-37.850672
21
72.301704
0
LINE
8
Sketch033
10
-37.850672
20
72.301704
11
-36.027309
21
70.077918
0
LINE
8
Sketch033
10
-36.027309
20
70.077918
11
-33.803524
21
68.254556
0
LINE
8
Sketch033
10
-33.803524
20
68.254556
11
-31.290487
21
66.912875
0
LINE
8
Sketch033
10
-31.290487
20
66.912875
11
-28.564789
21
66.084601
0
LINE
8
Sketch033
10
-28.564789
20
66.084601
11
-25.703024
21
65.801459
0
LINE
8
Sketch033
10
-25.703024
20
65.801459
11
-25.703024
21
65.801459
0
LINE
8
Sketch033
10
-24.079677
20
79.542286
11
-23.387912
21
79.456852
0
LINE
8
Sketch033
10
-23.387912
20
79.456852
11
-22.778829
21
79.200550
0
LINE
8
Sketch033
10
-22.778829
20
79.200550
11
-22.278601
21
78.791267
0
LINE
8
Sketch033
10
-22.278601
20
78.791267
11
-21.902397
21
78.246940
0
LINE
8
Sketch033
10
-21.902397
20
78.246940
11
-21.670881
21
77.595127
0
LINE
8
Sketch033
10
-21.670881
20
77.595127
11
-21.593708
21
76.852376
0
LINE
8
Sketch033
10
-21.593708
20
76.852376
11
-21.863795
21
75.601110
0
LINE
8
Sketch033
10
-21.863795
20
75.601110
11
-22.197288
21
75.089856
0
LINE
8
Sketch033
10
-22.197288
20
75.089856
11
-22.646537
21
74.680573
0
LINE
8
Sketch033
10
-22.646537
20
74.680573
11
-23.201884
21
74.395326
0
LINE
8
Sketch033
10
-23.201884
20
74.395326
11
-23.842664
21
74.245122
0
LINE
8
Sketch033
10
-23.842664
20
74.245122
11
-24.002525
21
75.237309
0
LINE
8
Sketch033
10
-24.002525
20
75.237309
11
-23.303847
21
75.459161
0
LINE
8
Sketch033
10
-23.303847
20
75.459161
11
-22.806372
21
75.805051
0
LINE
8
Sketch033
10
-22.806372
20
75.805051
11
-22.508716
21
76.273588
0
LINE
8
Sketch033
10
-22.508716
20
76.273588
11
-22.409497
21
76.852376
0
LINE
8
Sketch033
10
-22.409497
20
76.852376
11
-22.618968
21
77.690205
0
LINE
8
Sketch033
10
-22.618968
20
77.690205
11
-23.208776
21
78.268980
0
LINE
8
Sketch033
10
-23.208776
20
78.268980
11
-24.057638
21
78.478450
0
LINE
8
Sketch033
10
-24.057638
20
78.478450
11
-24.867923
21
78.285516
0
LINE
8
Sketch033
10
-24.867923
20
78.285516
11
-25.402592
21
77.739814
0
LINE
8
Sketch033
10
-25.402592
20
77.739814
11
-25.590023
21
76.935058
0
LINE
8
Sketch033
10
-25.590023
20
76.935058
11
-25.590023
21
76.075163
0
LINE
8
Sketch033
10
-25.590023
20
76.075163
11
-26.394779
21
76.196422
0
LINE
8
Sketch033
10
-26.394779
20
76.196422
11
-26.394779
21
76.389356
0
LINE
8
Sketch033
10
-26.394779
20
76.389356
11
-26.481595
21
77.201010
0
LINE
8
Sketch033
10
-26.481595
20
77.201010
11
-26.742044
21
77.772887
0
LINE
8
Sketch033
10
-26.742044
20
77.772887
11
-27.165106
21
78.116024
0
LINE
8
Sketch033
10
-27.165106
20
78.116024
11
-27.739760
21
78.230404
0
LINE
8
Sketch033
10
-27.739760
20
78.230404
11
-28.266161
21
78.139453
0
LINE
8
Sketch033
10
-28.266161
20
78.139453
11
-28.665801
21
77.866602
0
LINE
8
Sketch033
10
-28.665801
20
77.866602
11
-28.917975
21
77.436655
0
LINE
8
Sketch033
10
-28.917975
20
77.436655
11
-29.002033
21
76.874416
0
LINE
8
Sketch033
10
-29.002033
20
76.874416
11
-28.904190
21
76.313553
0
LINE
8
Sketch033
10
-28.904190
20
76.313553
11
-28.610662
21
75.854660
0
LINE
8
Sketch033
10
-28.610662
20
75.854660
11
-28.149024
21
75.525314
0
LINE
8
Sketch033
10
-28.149024
20
75.525314
11
-27.535793
21
75.342030
0
LINE
8
Sketch033
10
-27.535793
20
75.342030
11
-27.690151
21
74.333308
0
LINE
8
Sketch033
10
-27.690151
20
74.333308
11
-28.820132
21
74.796328
0
LINE
8
Sketch033
10
-28.820132
20
74.796328
11
-29.553265
21
75.678289
0
LINE
8
Sketch033
10
-29.553265
20
75.678289
11
-29.812318
21
76.868912
0
LINE
8
Sketch033
10
-29.812318
20
76.868912
11
-29.558768
21
78.120152
0
LINE
8
Sketch033
10
-29.558768
20
78.120152
11
-29.252851
21
78.598339
0
LINE
8
Sketch033
10
-29.252851
20
78.598339
11
-28.842198
21
78.952504
0
LINE
8
Sketch033
10
-28.842198
20
78.952504
11
-28.341951
21
79.171598
0
LINE
8
Sketch033
10
-28.341951
20
79.171598
11
-27.767303
21
79.244630
0
LINE
8
Sketch033
10
-27.767303
20
79.244630
11
-27.232627
21
79.163330
0
LINE
8
Sketch033
10
-27.232627
20
79.163330
11
-26.753077
21
78.919431
0
LINE
8
Sketch033
10
-26.753077
20
78.919431
11
-26.364471
21
78.533576
0
LINE
8
Sketch033
10
-26.364471
20
78.533576
11
-26.091619
21
78.026463
0
LINE
8
Sketch033
10
-26.091619
20
78.026463
11
-26.064050
21
78.026463
0
LINE
8
Sketch033
10
-26.064050
20
78.026463
11
-25.678209
21
78.831219
0
LINE
8
Sketch033
10
-25.678209
20
78.831219
11
-24.989181
21
79.354881
0
LINE
8
Sketch033
10
-24.989181
20
79.354881
11
-24.079677
21
79.542286
0
LINE
8
Sketch033
10
-24.079677
20
79.542286
11
-24.079677
21
79.542286
0
LINE
8
Sketch033
10
-25.689242
20
80.540002
11
-27.822442
21
80.760479
0
LINE
8
Sketch033
10
-27.822442
20
80.760479
11
-28.612051
21
81.069154
0
LINE
8
Sketch033
10
-28.612051
20
81.069154
11
-29.250079
21
81.554228
0
LINE
8
Sketch033
10
-29.250079
20
81.554228
11
-29.671758
21
82.244631
0
LINE
8
Sketch033
10
-29.671758
20
82.244631
11
-29.812318
21
83.169295
0
LINE
8
Sketch033
10
-29.812318
20
83.169295
11
-29.567030
21
84.318571
0
LINE
8
Sketch033
10
-29.567030
20
84.318571
11
-28.831165
21
85.142635
0
LINE
8
Sketch033
10
-28.831165
20
85.142635
11
-27.559228
21
85.638728
0
LINE
8
Sketch033
10
-27.559228
20
85.638728
11
-25.705778
21
85.804092
0
LINE
8
Sketch033
10
-25.705778
20
85.804092
11
-23.917078
21
85.644238
0
LINE
8
Sketch033
10
-23.917078
20
85.644238
11
-22.630001
21
85.164674
0
LINE
8
Sketch033
10
-22.630001
20
85.164674
11
-22.176623
21
84.802255
0
LINE
8
Sketch033
10
-22.176623
20
84.802255
11
-21.852782
21
84.348886
0
LINE
8
Sketch033
10
-21.852782
20
84.348886
11
-21.593708
21
83.169295
0
LINE
8
Sketch033
10
-21.593708
20
83.169295
11
-21.660544
21
82.507142
0
LINE
8
Sketch033
10
-21.660544
20
82.507142
11
-21.861050
21
81.948344
0
LINE
8
Sketch033
10
-21.861050
20
81.948344
11
-22.195226
21
81.492902
0
LINE
8
Sketch033
10
-22.195226
20
81.492902
11
-22.663074
21
81.140817
0
LINE
8
Sketch033
10
-22.663074
20
81.140817
11
-23.954285
21
80.690205
0
LINE
8
Sketch033
10
-23.954285
20
80.690205
11
-25.689242
21
80.540002
0
LINE
8
Sketch033
10
-25.689242
20
80.540002
11
-25.689242
21
80.540002
0
LINE
8
Sketch033
10
-28.996529
20
83.152759
11
-28.916599
21
82.656666
0
LINE
8
Sketch033
10
-28.916599
20
82.656666
11
-28.676807
21
82.259791
0
LINE
8
Sketch033
10
-28.676807
20
82.259791
11
-28.259262
21
81.955243
0
LINE
8
Sketch033
10
-28.259262
20
81.955243
11
-27.635012
21
81.736128
0
LINE
8
Sketch033
10
-27.635012
20
81.736128
11
-25.694745
21
81.559731
0
LINE
8
Sketch033
10
-25.694745
20
81.559731
11
-23.759982
21
81.730625
0
LINE
8
Sketch033
10
-23.759982
20
81.730625
11
-23.142624
21
81.945592
0
LINE
8
Sketch033
10
-23.142624
20
81.945592
11
-22.723690
21
82.248758
0
LINE
8
Sketch033
10
-22.723690
20
82.248758
11
-22.488045
21
82.655277
0
LINE
8
Sketch033
10
-22.488045
20
82.655277
11
-22.409497
21
83.169295
0
LINE
8
Sketch033
10
-22.409497
20
83.169295
11
-22.488045
21
83.679166
0
LINE
8
Sketch033
10
-22.488045
20
83.679166
11
-22.723690
21
84.084303
0
LINE
8
Sketch033
10
-22.723690
20
84.084303
11
-23.142624
21
84.391602
0
LINE
8
Sketch033
10
-23.142624
20
84.391602
11
-23.759982
21
84.607965
0
LINE
8
Sketch033
10
-23.759982
20
84.607965
11
-25.694745
21
84.784336
0
LINE
8
Sketch033
10
-25.694745
20
84.784336
11
-27.635012
21
84.602435
0
LINE
8
Sketch033
10
-27.635012
20
84.602435
11
-28.259262
21
84.380583
0
LINE
8
Sketch033
10
-28.259262
20
84.380583
11
-28.676807
21
84.067766
0
LINE
8
Sketch033
10
-28.676807
20
84.067766
11
-28.916599
21
83.662630
0
LINE
8
Sketch033
10
-28.916599
20
83.662630
11
-28.996529
21
83.152759
0
LINE
8
Sketch033
10
-28.996529
20
83.152759
11
-28.996529
21
83.152759
 0 
ENDSEC
 0 
EOF