999
FreeCAD v2024.123 14555 (Git shallow)
  0
SECTION
  2
HEADER
  9
$ACADVER
  1
AC1014
  9
$ACADMAINTVER
 70
     9
  9
$DWGCODEPAGE
  3
ANSI_1252
  9
$TEXTSTYLE
  7
STANDARD
  9
$DIMSTYLE
  2
STANDARD
  9
$DIMTXSTY
  7
STANDARD
  9
$CMLSTYLE
  2
STANDARD
  9
$LUNITS
 70
2
  9
$INSUNITS
 70
4
  9
$PEXTMAX
 10
50
 20
50
 30
50
  9
$PEXTMIN
 10
0
 20
0
 30
0
  9
$HANDSEED
  5
FFFF
  0
ENDSEC
  0
SECTION
  2
CLASSES
  0
CLASS
  1
ACDBDICTIONARYWDFLT
  2
AcDbDictionaryWithDefault
  3
ObjectDBX Classes
 90
        0
280
     0
281
     0
  0
CLASS
  1
XRECORD
  2
AcDbXrecord
  3
ObjectDBX Classes
 90
        0
280
     0
281
     0
  0
CLASS
  1
LWPOLYLINE
  2
AcDbPolyline
  3
ObjectDBX Classes
 90
        0
280
     0
281
     1
  0
ENDSEC
  0
SECTION
  2
TABLES
  0
TABLE
  2
VPORT
  5
20
330
0
100
AcDbSymbolTable
 70
     1
  0
VPORT
  5
21
330
20
100
AcDbSymbolTableRecord
100
AcDbViewportTableRecord
  2
*ACTIVE
 70
     0
  0
ENDTAB
  0
TABLE
  2
LTYPE
  5
22
330
0
100
AcDbSymbolTable
 70
     1
  0
LTYPE
  5
23
330
21
100
AcDbSymbolTableRecord
100
AcDbLinetypeTableRecord
  2
BYBLOCK
 70
     0
  3

 72
    65
 73
     0
 40
0.0
  0
LTYPE
  5
24
330
21
100
AcDbSymbolTableRecord
100
AcDbLinetypeTableRecord
  2
BYLAYER
 70
     0
  3

 72
    65
 73
     0
 40
0.0
  0
LTYPE
  5
25
330
21
100
AcDbSymbolTableRecord
100
AcDbLinetypeTableRecord
  2
CONTINUOUS
 70
     0
  3
Solid line
 72
    65
 73
     0
 40
0.0
  0
ENDTAB
  0
TABLE
  2
LAYER
  5
A5E
330
0
100
AcDbSymbolTable
 70
3
  0
LAYER
  5
A5F
330
A5E
100
AcDbSymbolTableRecord
100
AcDbLayerTableRecord
  2
0
 70
   0
 62
   7
  6
CONTINUOUS
  0
LAYER
  5
A60
330
A5E
100
AcDbSymbolTableRecord
100
AcDbLayerTableRecord
  2
none
 70
    0
 62
    7
  6
CONTINUOUS
  0
LAYER
  5
A61
330
A5E
100
AcDbSymbolTableRecord
100
AcDbLayerTableRecord
  2
Sketch099
 70
    0
 62
    7
  6
CONTINUOUS
  0
ENDTAB
  0
TABLE
  2
STYLE
  5
70
330
0
100
AcDbSymbolTable
 70
     2
  0
STYLE
  5
71
330
70
100
AcDbSymbolTableRecord
100
AcDbTextStyleTableRecord
  2
STANDARD
 70
     0
 40
0.0
 41
1.0
 50
0.0
 71
     0
 42
2.5
  3
arial.ttf
  4

  0
STYLE
  5
72
330
70
100
AcDbSymbolTableRecord
100
AcDbTextStyleTableRecord
  2
ANNOTATIVE
 70
     0
 40
0.0
 41
1.0
 50
0.0
 71
     0
 42
2.5
  3
arial.ttf
  4

  0
ENDTAB
  0
TABLE
  2
VIEW
  5
73
330
0
100
AcDbSymbolTable
 70
     0
  0
ENDTAB
  0
TABLE
  2
UCS
  5
74
330
0
100
AcDbSymbolTable
 70
     0
  0
ENDTAB
  0
TABLE
  2
APPID
  5
75
330
0
100
AcDbSymbolTable
 70
     2
  0
APPID
  5
76
330
75
100
AcDbSymbolTableRecord
100
AcDbRegAppTableRecord
  2
ACAD
 70
     0
  0
APPID
  5
77
330
75
100
AcDbSymbolTableRecord
100
AcDbRegAppTableRecord
  2
ACADANNOTATIVE
 70
     0
  0
ENDTAB
  0
TABLE
  2
DIMSTYLE
  5
78
330
0
100
AcDbSymbolTable
 70
     2
  0
DIMSTYLE
105
79
330
78
100
AcDbSymbolTableRecord
100
AcDbDimStyleTableRecord
  2
STANDARD
 70
     0
  3

  4

  5

  6

  7

 40
0.0
 41
2.5
 42
0.625
 43
3.75
 44
1.25
 45
0.0
 46
0.0
 47
0.0
 48
0.0
140
2.5
141
2.5
142
0.0
143
0.03937007874016
144
1.0
145
0.0
146
1.0
147
0.625
 71
     0
 72
     0
 73
     0
 74
     0
 75
     0
 76
     0
 77
     1
 78
     8
170
     0
171
     3
172
     1
173
     0
174
     0
175
     0
176
     0
177
     0
178
     0
270
     2
271
     2
272
     2
273
     2
274
     3
340
71
275
     0
280
     0
281
     0
282
     0
283
     0
284
     8
285
     0
286
     0
287
     3
288
     0
  0
ENDTAB
  0
TABLE
  2
BLOCK_RECORD
  5
A01
330
0
100
AcDbSymbolTable
  70
5
  0
BLOCK_RECORD
  5
A02
330
A01
100
AcDbSymbolTableRecord
100
AcDbBlockTableRecord
  2
*MODEL_SPACE
  0
BLOCK_RECORD
  5
A03
330
A01
100
AcDbSymbolTableRecord
100
AcDbBlockTableRecord
  2
*PAPER_SPACE
  0
ENDTAB
  0
ENDSEC
  0
SECTION
  2
BLOCKS
  0
BLOCK
  5
A04
330
A02
100
AcDbEntity
  8
0
100
AcDbBlockBegin
  2
*MODEL_SPACE
 70
   0
 10
0
 20
0
 30
0
  3
*MODEL_SPACE
  1
 
  0
ENDBLK
  5
A05
330
A02
100
AcDbEntity
  8
0
100
AcDbBlockEnd
  0
BLOCK
  5
A06
330
A03
100
AcDbEntity
 67
1
  8
0
100
AcDbBlockBegin
  2
*PAPER_SPACE
 70
   0
 10
0
 20
0
 30
0
  3
*PAPER_SPACE
  1
 
  0
ENDBLK
  5
A07
330
A03
100
AcDbEntity
 67
    1
  8
0
100
AcDbBlockEnd
  0
ENDSEC
  0
SECTION
  2
ENTITIES
  0
LINE
  5
A08
330
A02
100
AcDbEntity
  8
Sketch099
100
AcDbLine
 10
26.1722
 20
8.1e-16
 30
0
 11
46.1722
 21
5.21e-15
 31
0
  0
LINE
  5
A09
330
A02
100
AcDbEntity
  8
Sketch099
100
AcDbLine
 10
46.1722
 20
5.25e-15
 30
0
 11
46.1722
 21
8
 31
0
  0
LINE
  5
A0A
330
A02
100
AcDbEntity
  8
Sketch099
100
AcDbLine
 10
46.1722
 20
8
 30
0
 11
158.839
 21
8
 31
0
  0
LINE
  5
A0B
330
A02
100
AcDbEntity
  8
Sketch099
100
AcDbLine
 10
158.839
 20
3.027e-14
 30
0
 11
158.839
 21
8
 31
0
  0
LINE
  5
A0C
330
A02
100
AcDbEntity
  8
Sketch099
100
AcDbLine
 10
158.839
 20
3.027e-14
 30
0
 11
178.839
 21
3.467e-14
 31
0
  0
LINE
  5
A0D
330
A02
100
AcDbEntity
  8
Sketch099
100
AcDbLine
 10
178.839
 20
3.471e-14
 30
0
 11
178.839
 21
8
 31
0
  0
LINE
  5
A0E
330
A02
100
AcDbEntity
  8
Sketch099
100
AcDbLine
 10
178.839
 20
8
 30
0
 11
270.011
 21
8
 31
0
  0
LINE
  5
A0F
330
A02
100
AcDbEntity
  8
Sketch099
100
AcDbLine
 10
270.011
 20
5.495e-14
 30
0
 11
270.011
 21
8
 31
0
  0
LINE
  5
A10
330
A02
100
AcDbEntity
  8
Sketch099
100
AcDbLine
 10
280.011
 20
5.717e-14
 30
0
 11
270.011
 21
5.497e-14
 31
0
  0
LINE
  5
A11
330
A02
100
AcDbEntity
  8
Sketch099
100
AcDbLine
 10
280.011
 20
5.717e-14
 30
0
 11
280.011
 21
8
 31
0
  0
LINE
  5
A12
330
A02
100
AcDbEntity
  8
Sketch099
100
AcDbLine
 10
282.264
 20
47.9365
 30
0
 11
280.011
 21
8
 31
0
  0
LINE
  5
A13
330
A02
100
AcDbEntity
  8
Sketch099
100
AcDbLine
 10
283.164
 20
55.8857
 30
0
 11
282.264
 21
47.9365
 31
0
  0
LINE
  5
A14
330
A02
100
AcDbEntity
  8
Sketch099
100
AcDbLine
 10
273.228
 20
57.0106
 30
0
 11
283.164
 21
55.8857
 31
0
  0
LINE
  5
A15
330
A02
100
AcDbEntity
  8
Sketch099
100
AcDbLine
 10
272.328
 20
49.0614
 30
0
 11
273.228
 21
57.0106
 31
0
  0
LINE
  5
A16
330
A02
100
AcDbEntity
  8
Sketch099
100
AcDbLine
 10
181.734
 20
59.3177
 30
0
 11
272.328
 21
49.0614
 31
0
  0
LINE
  5
A17
330
A02
100
AcDbEntity
  8
Sketch099
100
AcDbLine
 10
182.634
 20
67.2669
 30
0
 11
181.734
 21
59.3177
 31
0
  0
LINE
  5
A18
330
A02
100
AcDbEntity
  8
Sketch099
100
AcDbLine
 10
162.761
 20
69.5168
 30
0
 11
182.634
 21
67.2669
 31
0
  0
LINE
  5
A19
330
A02
100
AcDbEntity
  8
Sketch099
100
AcDbLine
 10
161.861
 20
61.5676
 30
0
 11
162.761
 21
69.5168
 31
0
  0
LINE
  5
A1A
330
A02
100
AcDbEntity
  8
Sketch099
100
AcDbLine
 10
49.9099
 20
74.2419
 30
0
 11
161.861
 21
61.5676
 31
0
  0
LINE
  5
A1B
330
A02
100
AcDbEntity
  8
Sketch099
100
AcDbLine
 10
50.8099
 20
82.1911
 30
0
 11
49.9099
 21
74.2419
 31
0
  0
LINE
  5
A1C
330
A02
100
AcDbEntity
  8
Sketch099
100
AcDbLine
 10
30.9368
 20
84.4409
 30
0
 11
50.8099
 21
82.1911
 31
0
  0
LINE
  5
A1D
330
A02
100
AcDbEntity
  8
Sketch099
100
AcDbLine
 10
30.0369
 20
76.4917
 30
0
 11
30.9368
 21
84.4409
 31
0
  0
LINE
  5
A1E
330
A02
100
AcDbEntity
  8
Sketch099
100
AcDbLine
 10
-55.5883
 20
86.1855
 30
0
 11
30.0369
 21
76.4917
 31
0
  0
LINE
  5
A1F
330
A02
100
AcDbEntity
  8
Sketch099
100
AcDbLine
 10
-54.6884
 20
94.1348
 30
0
 11
-55.5883
 21
86.1855
 31
0
  0
LINE
  5
A20
330
A02
100
AcDbEntity
  8
Sketch099
100
AcDbLine
 10
-64.6249
 20
95.2597
 30
0
 11
-54.6884
 21
94.1348
 31
0
  0
LINE
  5
A21
330
A02
100
AcDbEntity
  8
Sketch099
100
AcDbLine
 10
-65.5248
 20
87.3105
 30
0
 11
-64.6249
 21
95.2597
 31
0
  0
LINE
  5
A22
330
A02
100
AcDbEntity
  8
Sketch099
100
AcDbLine
 10
-70.4931
 20
87.8729
 30
0
 11
-65.5248
 21
87.3105
 31
0
  0
LINE
  5
A23
330
A02
100
AcDbEntity
  8
Sketch099
100
AcDbLine
 10
-75
 20
8
 30
0
 11
-70.4931
 21
87.8729
 31
0
  0
LINE
  5
A24
330
A02
100
AcDbEntity
  8
Sketch099
100
AcDbLine
 10
-70
 20
8
 30
0
 11
-75
 21
8
 31
0
  0
LINE
  5
A25
330
A02
100
AcDbEntity
  8
Sketch099
100
AcDbLine
 10
-70
 20
-2.054e-14
 30
0
 11
-70
 21
8
 31
0
  0
LINE
  5
A26
330
A02
100
AcDbEntity
  8
Sketch099
100
AcDbLine
 10
-70
 20
-2.054e-14
 30
0
 11
-60
 21
-1.834e-14
 31
0
  0
LINE
  5
A27
330
A02
100
AcDbEntity
  8
Sketch099
100
AcDbLine
 10
-60
 20
-1.832e-14
 30
0
 11
-60
 21
8
 31
0
  0
LINE
  5
A28
330
A02
100
AcDbEntity
  8
Sketch099
100
AcDbLine
 10
-60
 20
8
 30
0
 11
26.1722
 21
8
 31
0
  0
LINE
  5
A29
330
A02
100
AcDbEntity
  8
Sketch099
100
AcDbLine
 10
26.1722
 20
8.1e-16
 30
0
 11
26.1722
 21
8
 31
0
  0
LINE
  5
A2A
330
A02
100
AcDbEntity
  8
Sketch099
100
AcDbLine
 10
-56.521
 20
36.9891
 30
0
 11
-55.3924
 21
56.9891
 31
0
  0
LINE
  5
A2B
330
A02
100
AcDbEntity
  8
Sketch099
100
AcDbLine
 10
-55.3924
 20
56.9891
 30
0
 11
-47.8988
 21
56.5663
 31
0
  0
LINE
  5
A2C
330
A02
100
AcDbEntity
  8
Sketch099
100
AcDbLine
 10
-47.8988
 20
56.5663
 30
0
 11
-49.0273
 21
36.5663
 31
0
  0
LINE
  5
A2D
330
A02
100
AcDbEntity
  8
Sketch099
100
AcDbLine
 10
-49.0273
 20
36.5663
 30
0
 11
-56.521
 21
36.9891
 31
0
  0
LINE
  5
A2E
330
A02
100
AcDbEntity
  8
Sketch099
100
AcDbLine
 10
-30.5623
 20
35.5243
 30
0
 11
-29.4337
 21
55.5243
 31
0
  0
LINE
  5
A2F
330
A02
100
AcDbEntity
  8
Sketch099
100
AcDbLine
 10
-29.4337
 20
55.5243
 30
0
 11
-21.9401
 21
55.1015
 31
0
  0
LINE
  5
A30
330
A02
100
AcDbEntity
  8
Sketch099
100
AcDbLine
 10
-21.9401
 20
55.1015
 30
0
 11
-23.0686
 21
35.1015
 31
0
  0
LINE
  5
A31
330
A02
100
AcDbEntity
  8
Sketch099
100
AcDbLine
 10
-23.0686
 20
35.1015
 30
0
 11
-30.5623
 21
35.5243
 31
0
  0
LINE
  5
A32
330
A02
100
AcDbEntity
  8
Sketch099
100
AcDbLine
 10
-4.60355
 20
34.0596
 30
0
 11
-3.47503
 21
54.0596
 31
0
  0
LINE
  5
A33
330
A02
100
AcDbEntity
  8
Sketch099
100
AcDbLine
 10
-3.47503
 20
54.0596
 30
0
 11
4.01865
 21
53.6368
 31
0
  0
LINE
  5
A34
330
A02
100
AcDbEntity
  8
Sketch099
100
AcDbLine
 10
4.01865
 20
53.6368
 30
0
 11
2.89013
 21
33.6368
 31
0
  0
LINE
  5
A35
330
A02
100
AcDbEntity
  8
Sketch099
100
AcDbLine
 10
2.89013
 20
33.6368
 30
0
 11
-4.60355
 21
34.0596
 31
0
  0
LINE
  5
A36
330
A02
100
AcDbEntity
  8
Sketch099
100
AcDbLine
 10
21.3552
 20
32.5949
 30
0
 11
22.4837
 21
52.5949
 31
0
  0
LINE
  5
A37
330
A02
100
AcDbEntity
  8
Sketch099
100
AcDbLine
 10
22.4837
 20
52.5949
 30
0
 11
29.9774
 21
52.172
 31
0
  0
LINE
  5
A38
330
A02
100
AcDbEntity
  8
Sketch099
100
AcDbLine
 10
29.9774
 20
52.172
 30
0
 11
28.8488
 21
32.172
 31
0
  0
LINE
  5
A39
330
A02
100
AcDbEntity
  8
Sketch099
100
AcDbLine
 10
28.8488
 20
32.172
 30
0
 11
21.3552
 21
32.5949
 31
0
  0
LINE
  5
A3A
330
A02
100
AcDbEntity
  8
Sketch099
100
AcDbLine
 10
47.3139
 20
31.1301
 30
0
 11
48.4424
 21
51.1301
 31
0
  0
LINE
  5
A3B
330
A02
100
AcDbEntity
  8
Sketch099
100
AcDbLine
 10
48.4424
 20
51.1301
 30
0
 11
55.9361
 21
50.7073
 31
0
  0
LINE
  5
A3C
330
A02
100
AcDbEntity
  8
Sketch099
100
AcDbLine
 10
55.9361
 20
50.7073
 30
0
 11
54.8076
 21
30.7073
 31
0
  0
LINE
  5
A3D
330
A02
100
AcDbEntity
  8
Sketch099
100
AcDbLine
 10
54.8076
 20
30.7073
 30
0
 11
47.3139
 21
31.1301
 31
0
  0
LINE
  5
A3E
330
A02
100
AcDbEntity
  8
Sketch099
100
AcDbLine
 10
73.2726
 20
29.6654
 30
0
 11
74.4011
 21
49.6654
 31
0
  0
LINE
  5
A3F
330
A02
100
AcDbEntity
  8
Sketch099
100
AcDbLine
 10
74.4011
 20
49.6654
 30
0
 11
81.8948
 21
49.2425
 31
0
  0
LINE
  5
A40
330
A02
100
AcDbEntity
  8
Sketch099
100
AcDbLine
 10
81.8948
 20
49.2425
 30
0
 11
80.7663
 21
29.2425
 31
0
  0
LINE
  5
A41
330
A02
100
AcDbEntity
  8
Sketch099
100
AcDbLine
 10
80.7663
 20
29.2425
 30
0
 11
73.2726
 21
29.6654
 31
0
  0
LINE
  5
A42
330
A02
100
AcDbEntity
  8
Sketch099
100
AcDbLine
 10
99.2313
 20
28.2006
 30
0
 11
100.36
 21
48.2006
 31
0
  0
LINE
  5
A43
330
A02
100
AcDbEntity
  8
Sketch099
100
AcDbLine
 10
100.36
 20
48.2006
 30
0
 11
107.853
 21
47.7778
 31
0
  0
LINE
  5
A44
330
A02
100
AcDbEntity
  8
Sketch099
100
AcDbLine
 10
107.853
 20
47.7778
 30
0
 11
106.725
 21
27.7778
 31
0
  0
LINE
  5
A45
330
A02
100
AcDbEntity
  8
Sketch099
100
AcDbLine
 10
106.725
 20
27.7778
 30
0
 11
99.2313
 21
28.2006
 31
0
  0
LINE
  5
A46
330
A02
100
AcDbEntity
  8
Sketch099
100
AcDbLine
 10
125.19
 20
26.7359
 30
0
 11
126.319
 21
46.7359
 31
0
  0
LINE
  5
A47
330
A02
100
AcDbEntity
  8
Sketch099
100
AcDbLine
 10
126.319
 20
46.7359
 30
0
 11
133.812
 21
46.3131
 31
0
  0
LINE
  5
A48
330
A02
100
AcDbEntity
  8
Sketch099
100
AcDbLine
 10
133.812
 20
46.3131
 30
0
 11
132.684
 21
26.3131
 31
0
  0
LINE
  5
A49
330
A02
100
AcDbEntity
  8
Sketch099
100
AcDbLine
 10
132.684
 20
26.3131
 30
0
 11
125.19
 21
26.7359
 31
0
  0
LINE
  5
A4A
330
A02
100
AcDbEntity
  8
Sketch099
100
AcDbLine
 10
151.149
 20
25.2711
 30
0
 11
152.277
 21
45.2711
 31
0
  0
LINE
  5
A4B
330
A02
100
AcDbEntity
  8
Sketch099
100
AcDbLine
 10
152.277
 20
45.2711
 30
0
 11
159.771
 21
44.8483
 31
0
  0
LINE
  5
A4C
330
A02
100
AcDbEntity
  8
Sketch099
100
AcDbLine
 10
159.771
 20
44.8483
 30
0
 11
158.642
 21
24.8483
 31
0
  0
LINE
  5
A4D
330
A02
100
AcDbEntity
  8
Sketch099
100
AcDbLine
 10
158.642
 20
24.8483
 30
0
 11
151.149
 21
25.2711
 31
0
  0
LINE
  5
A4E
330
A02
100
AcDbEntity
  8
Sketch099
100
AcDbLine
 10
177.107
 20
23.8064
 30
0
 11
178.236
 21
43.8064
 31
0
  0
LINE
  5
A4F
330
A02
100
AcDbEntity
  8
Sketch099
100
AcDbLine
 10
178.236
 20
43.8064
 30
0
 11
185.73
 21
43.3836
 31
0
  0
LINE
  5
A50
330
A02
100
AcDbEntity
  8
Sketch099
100
AcDbLine
 10
185.73
 20
43.3836
 30
0
 11
184.601
 21
23.3836
 31
0
  0
LINE
  5
A51
330
A02
100
AcDbEntity
  8
Sketch099
100
AcDbLine
 10
184.601
 20
23.3836
 30
0
 11
177.107
 21
23.8064
 31
0
  0
LINE
  5
A52
330
A02
100
AcDbEntity
  8
Sketch099
100
AcDbLine
 10
203.066
 20
22.3417
 30
0
 11
204.195
 21
42.3417
 31
0
  0
LINE
  5
A53
330
A02
100
AcDbEntity
  8
Sketch099
100
AcDbLine
 10
204.195
 20
42.3417
 30
0
 11
211.688
 21
41.9188
 31
0
  0
LINE
  5
A54
330
A02
100
AcDbEntity
  8
Sketch099
100
AcDbLine
 10
211.688
 20
41.9188
 30
0
 11
210.56
 21
21.9188
 31
0
  0
LINE
  5
A55
330
A02
100
AcDbEntity
  8
Sketch099
100
AcDbLine
 10
210.56
 20
21.9188
 30
0
 11
203.066
 21
22.3417
 31
0
  0
LINE
  5
A56
330
A02
100
AcDbEntity
  8
Sketch099
100
AcDbLine
 10
229.025
 20
20.8769
 30
0
 11
230.153
 21
40.8769
 31
0
  0
LINE
  5
A57
330
A02
100
AcDbEntity
  8
Sketch099
100
AcDbLine
 10
230.153
 20
40.8769
 30
0
 11
237.647
 21
40.4541
 31
0
  0
LINE
  5
A58
330
A02
100
AcDbEntity
  8
Sketch099
100
AcDbLine
 10
237.647
 20
40.4541
 30
0
 11
236.519
 21
20.4541
 31
0
  0
LINE
  5
A59
330
A02
100
AcDbEntity
  8
Sketch099
100
AcDbLine
 10
236.519
 20
20.4541
 30
0
 11
229.025
 21
20.8769
 31
0
  0
LINE
  5
A5A
330
A02
100
AcDbEntity
  8
Sketch099
100
AcDbLine
 10
254.984
 20
19.4122
 30
0
 11
256.112
 21
39.4122
 31
0
  0
LINE
  5
A5B
330
A02
100
AcDbEntity
  8
Sketch099
100
AcDbLine
 10
256.112
 20
39.4122
 30
0
 11
263.606
 21
38.9893
 31
0
  0
LINE
  5
A5C
330
A02
100
AcDbEntity
  8
Sketch099
100
AcDbLine
 10
263.606
 20
38.9893
 30
0
 11
262.477
 21
18.9893
 31
0
  0
LINE
  5
A5D
330
A02
100
AcDbEntity
  8
Sketch099
100
AcDbLine
 10
262.477
 20
18.9893
 30
0
 11
254.984
 21
19.4122
 31
0
  0
ENDSEC
  0
SECTION
  2
OBJECTS
  0
DICTIONARY
  5
F000
330
0
100
AcDbDictionary
  3
ACAD_GROUP
350
F001
  0
DICTIONARY
  5
F001
330
F000
100
AcDbDictionary
  0
ENDSEC
  0
EOF