999
FreeCAD v2024.123 14555 (Git shallow)
  0
SECTION
  2
HEADER
  9
$ACADVER
  1
AC1014
  9
$ACADMAINTVER
 70
     9
  9
$DWGCODEPAGE
  3
ANSI_1252
  9
$TEXTSTYLE
  7
STANDARD
  9
$DIMSTYLE
  2
STANDARD
  9
$DIMTXSTY
  7
STANDARD
  9
$CMLSTYLE
  2
STANDARD
  9
$LUNITS
 70
2
  9
$INSUNITS
 70
4
  9
$PEXTMAX
 10
50
 20
50
 30
50
  9
$PEXTMIN
 10
0
 20
0
 30
0
  9
$HANDSEED
  5
FFFF
  0
ENDSEC
  0
SECTION
  2
CLASSES
  0
CLASS
  1
ACDBDICTIONARYWDFLT
  2
AcDbDictionaryWithDefault
  3
ObjectDBX Classes
 90
        0
280
     0
281
     0
  0
CLASS
  1
XRECORD
  2
AcDbXrecord
  3
ObjectDBX Classes
 90
        0
280
     0
281
     0
  0
CLASS
  1
LWPOLYLINE
  2
AcDbPolyline
  3
ObjectDBX Classes
 90
        0
280
     0
281
     1
  0
ENDSEC
  0
SECTION
  2
TABLES
  0
TABLE
  2
VPORT
  5
20
330
0
100
AcDbSymbolTable
 70
     1
  0
VPORT
  5
21
330
20
100
AcDbSymbolTableRecord
100
AcDbViewportTableRecord
  2
*ACTIVE
 70
     0
  0
ENDTAB
  0
TABLE
  2
LTYPE
  5
22
330
0
100
AcDbSymbolTable
 70
     1
  0
LTYPE
  5
23
330
21
100
AcDbSymbolTableRecord
100
AcDbLinetypeTableRecord
  2
BYBLOCK
 70
     0
  3

 72
    65
 73
     0
 40
0.0
  0
LTYPE
  5
24
330
21
100
AcDbSymbolTableRecord
100
AcDbLinetypeTableRecord
  2
BYLAYER
 70
     0
  3

 72
    65
 73
     0
 40
0.0
  0
LTYPE
  5
25
330
21
100
AcDbSymbolTableRecord
100
AcDbLinetypeTableRecord
  2
CONTINUOUS
 70
     0
  3
Solid line
 72
    65
 73
     0
 40
0.0
  0
ENDTAB
  0
TABLE
  2
LAYER
  5
A2C
330
0
100
AcDbSymbolTable
 70
3
  0
LAYER
  5
A2D
330
A2C
100
AcDbSymbolTableRecord
100
AcDbLayerTableRecord
  2
0
 70
   0
 62
   7
  6
CONTINUOUS
  0
LAYER
  5
A2E
330
A2C
100
AcDbSymbolTableRecord
100
AcDbLayerTableRecord
  2
none
 70
    0
 62
    7
  6
CONTINUOUS
  0
LAYER
  5
A2F
330
A2C
100
AcDbSymbolTableRecord
100
AcDbLayerTableRecord
  2
Sketch038
 70
    0
 62
    7
  6
CONTINUOUS
  0
ENDTAB
  0
TABLE
  2
STYLE
  5
70
330
0
100
AcDbSymbolTable
 70
     2
  0
STYLE
  5
71
330
70
100
AcDbSymbolTableRecord
100
AcDbTextStyleTableRecord
  2
STANDARD
 70
     0
 40
0.0
 41
1.0
 50
0.0
 71
     0
 42
2.5
  3
arial.ttf
  4

  0
STYLE
  5
72
330
70
100
AcDbSymbolTableRecord
100
AcDbTextStyleTableRecord
  2
ANNOTATIVE
 70
     0
 40
0.0
 41
1.0
 50
0.0
 71
     0
 42
2.5
  3
arial.ttf
  4

  0
ENDTAB
  0
TABLE
  2
VIEW
  5
73
330
0
100
AcDbSymbolTable
 70
     0
  0
ENDTAB
  0
TABLE
  2
UCS
  5
74
330
0
100
AcDbSymbolTable
 70
     0
  0
ENDTAB
  0
TABLE
  2
APPID
  5
75
330
0
100
AcDbSymbolTable
 70
     2
  0
APPID
  5
76
330
75
100
AcDbSymbolTableRecord
100
AcDbRegAppTableRecord
  2
ACAD
 70
     0
  0
APPID
  5
77
330
75
100
AcDbSymbolTableRecord
100
AcDbRegAppTableRecord
  2
ACADANNOTATIVE
 70
     0
  0
ENDTAB
  0
TABLE
  2
DIMSTYLE
  5
78
330
0
100
AcDbSymbolTable
 70
     2
  0
DIMSTYLE
105
79
330
78
100
AcDbSymbolTableRecord
100
AcDbDimStyleTableRecord
  2
STANDARD
 70
     0
  3

  4

  5

  6

  7

 40
0.0
 41
2.5
 42
0.625
 43
3.75
 44
1.25
 45
0.0
 46
0.0
 47
0.0
 48
0.0
140
2.5
141
2.5
142
0.0
143
0.03937007874016
144
1.0
145
0.0
146
1.0
147
0.625
 71
     0
 72
     0
 73
     0
 74
     0
 75
     0
 76
     0
 77
     1
 78
     8
170
     0
171
     3
172
     1
173
     0
174
     0
175
     0
176
     0
177
     0
178
     0
270
     2
271
     2
272
     2
273
     2
274
     3
340
71
275
     0
280
     0
281
     0
282
     0
283
     0
284
     8
285
     0
286
     0
287
     3
288
     0
  0
ENDTAB
  0
TABLE
  2
BLOCK_RECORD
  5
A01
330
0
100
AcDbSymbolTable
  70
5
  0
BLOCK_RECORD
  5
A02
330
A01
100
AcDbSymbolTableRecord
100
AcDbBlockTableRecord
  2
*MODEL_SPACE
  0
BLOCK_RECORD
  5
A03
330
A01
100
AcDbSymbolTableRecord
100
AcDbBlockTableRecord
  2
*PAPER_SPACE
  0
ENDTAB
  0
ENDSEC
  0
SECTION
  2
BLOCKS
  0
BLOCK
  5
A04
330
A02
100
AcDbEntity
  8
0
100
AcDbBlockBegin
  2
*MODEL_SPACE
 70
   0
 10
0
 20
0
 30
0
  3
*MODEL_SPACE
  1
 
  0
ENDBLK
  5
A05
330
A02
100
AcDbEntity
  8
0
100
AcDbBlockEnd
  0
BLOCK
  5
A06
330
A03
100
AcDbEntity
 67
1
  8
0
100
AcDbBlockBegin
  2
*PAPER_SPACE
 70
   0
 10
0
 20
0
 30
0
  3
*PAPER_SPACE
  1
 
  0
ENDBLK
  5
A07
330
A03
100
AcDbEntity
 67
    1
  8
0
100
AcDbBlockEnd
  0
ENDSEC
  0
SECTION
  2
ENTITIES
  0
LINE
  5
A08
330
A02
100
AcDbEntity
  8
Sketch038
100
AcDbLine
 10
-32
 20
-1.88738e-14
 30
0
 11
-32
 21
8
 31
0
  0
LINE
  5
A09
330
A02
100
AcDbEntity
  8
Sketch038
100
AcDbLine
 10
-27
 20
-1.66533e-14
 30
0
 11
-27
 21
8
 31
0
  0
LINE
  5
A0A
330
A02
100
AcDbEntity
  8
Sketch038
100
AcDbLine
 10
-22
 20
-1.15463e-14
 30
0
 11
-22
 21
8
 31
0
  0
LINE
  5
A0B
330
A02
100
AcDbEntity
  8
Sketch038
100
AcDbLine
 10
-5
 20
-7.77156e-15
 30
0
 11
-5
 21
8
 31
0
  0
SPLINE
  5
A0C
330
A02
100
AcDbEntity
  8
Sketch038
100
AcDbSpline
210
0
220
0
230
1
 70
8
 71
1
 72
17
 73
15
 74
0
 40
3.14159
 40
3.14159
 40
3.25379
 40
3.36599
 40
3.47819
 40
3.59039
 40
3.70259
 40
3.81479
 40
3.92699
 40
4.03919
 40
4.15139
 40
4.26359
 40
4.37579
 40
4.48799
 40
4.60019
 40
4.71239
 40
4.71239
 10
-5
 20
-7.77156e-15
 30
0
 10
-4.44018
 20
-7.64027e-15
 30
0
 10
-3.8874
 20
-7.49668e-15
 30
0
 10
-3.3486
 20
-7.34258e-15
 30
0
 10
-2.83058
 20
-7.17991e-15
 30
0
 10
-2.33984
 20
-7.01072e-15
 30
0
 10
-1.88255
 20
-6.83713e-15
 30
0
 10
-1.46447
 20
-6.66134e-15
 30
0
 10
-1.09084
 20
-6.48554e-15
 30
0
 10
-0.766379
 20
-6.31196e-15
 30
0
 10
-0.495156
 20
-6.14277e-15
 30
0
 10
-0.280583
 20
-5.9801e-15
 30
0
 10
-0.12536
 20
-5.826e-15
 30
0
 10
-0.031439
 20
-5.6824e-15
 30
0
 10
3.61933e-14
 20
-5.55112e-15
 30
0
  0
LINE
  5
A0D
330
A02
100
AcDbEntity
  8
Sketch038
100
AcDbLine
 10
-22
 20
-1.15463e-14
 30
0
 11
-5
 21
-7.77156e-15
 31
0
  0
SPLINE
  5
A0E
330
A02
100
AcDbEntity
  8
Sketch038
100
AcDbSpline
210
0
220
0
230
1
 70
8
 71
2
 72
30
 73
27
 74
0
 40
1.10505e-16
 40
1.10505e-16
 40
1.10505e-16
 40
0.224399
 40
0.224399
 40
0.336599
 40
0.336599
 40
0.448799
 40
0.448799
 40
0.560999
 40
0.560999
 40
0.673198
 40
0.673198
 40
0.785398
 40
0.785398
 40
0.897598
 40
0.897598
 40
1.0098
 40
1.0098
 40
1.122
 40
1.122
 40
1.2342
 40
1.2342
 40
1.3464
 40
1.3464
 40
1.4586
 40
1.4586
 40
1.5708
 40
1.5708
 40
1.5708
 10
-22
 20
-1.15463e-14
 30
0
 10
-22.5618
 20
-1.16742e-14
 30
0
 10
-23.1126
 20
-1.18212e-14
 30
0
 10
-23.382
 20
-1.18983e-14
 30
0
 10
-23.6514
 20
-1.19753e-14
 30
0
 10
-23.9104
 20
-1.20566e-14
 30
0
 10
-24.1694
 20
-1.2138e-14
 30
0
 10
-24.4148
 20
-1.22226e-14
 30
0
 10
-24.6602
 20
-1.23072e-14
 30
0
 10
-24.8888
 20
-1.2394e-14
 30
0
 10
-25.1174
 20
-1.24807e-14
 30
0
 10
-25.3265
 20
-1.25686e-14
 30
0
 10
-25.5355
 20
-1.26565e-14
 30
0
 10
-25.7223
 20
-1.27444e-14
 30
0
 10
-25.9092
 20
-1.28323e-14
 30
0
 10
-26.0714
 20
-1.29191e-14
 30
0
 10
-26.2336
 20
-1.30059e-14
 30
0
 10
-26.3692
 20
-1.30905e-14
 30
0
 10
-26.5048
 20
-1.31751e-14
 30
0
 10
-26.6121
 20
-1.32564e-14
 30
0
 10
-26.7194
 20
-1.33378e-14
 30
0
 10
-26.797
 20
-1.34148e-14
 30
0
 10
-26.8746
 20
-1.34919e-14
 30
0
 10
-26.9216
 20
-1.35637e-14
 30
0
 10
-26.9686
 20
-1.36355e-14
 30
0
 10
-26.9843
 20
-1.37011e-14
 30
0
 10
-27
 20
-1.37668e-14
 30
0
  0
SPLINE
  5
A0F
330
A02
100
AcDbEntity
  8
Sketch038
100
AcDbSpline
210
0
220
0
230
1
 70
8
 71
1
 72
17
 73
15
 74
0
 40
3.14159
 40
3.14159
 40
3.25379
 40
3.36599
 40
3.47819
 40
3.59039
 40
3.70259
 40
3.81479
 40
3.92699
 40
4.03919
 40
4.15139
 40
4.26359
 40
4.37579
 40
4.48799
 40
4.60019
 40
4.71239
 40
4.71239
 10
-32
 20
-1.88738e-14
 30
0
 10
-31.4402
 20
-1.87425e-14
 30
0
 10
-30.8874
 20
-1.85989e-14
 30
0
 10
-30.3486
 20
-1.84448e-14
 30
0
 10
-29.8306
 20
-1.82821e-14
 30
0
 10
-29.3398
 20
-1.81129e-14
 30
0
 10
-28.8826
 20
-1.79394e-14
 30
0
 10
-28.4645
 20
-1.77636e-14
 30
0
 10
-28.0908
 20
-1.75878e-14
 30
0
 10
-27.7664
 20
-1.74142e-14
 30
0
 10
-27.4952
 20
-1.7245e-14
 30
0
 10
-27.2806
 20
-1.70823e-14
 30
0
 10
-27.1254
 20
-1.69282e-14
 30
0
 10
-27.0314
 20
-1.67846e-14
 30
0
 10
-27
 20
-1.66533e-14
 30
0
  0
LINE
  5
A10
330
A02
100
AcDbEntity
  8
Sketch038
100
AcDbLine
 10
-40
 20
-2.06501e-14
 30
0
 11
-32
 21
-1.88738e-14
 31
0
  0
SPLINE
  5
A11
330
A02
100
AcDbEntity
  8
Sketch038
100
AcDbSpline
210
0
220
0
230
1
 70
8
 71
2
 72
30
 73
27
 74
0
 40
1.5708
 40
1.5708
 40
1.5708
 40
1.683
 40
1.683
 40
1.7952
 40
1.7952
 40
1.9074
 40
1.9074
 40
2.0196
 40
2.0196
 40
2.1318
 40
2.1318
 40
2.24399
 40
2.24399
 40
2.35619
 40
2.35619
 40
2.46839
 40
2.46839
 40
2.58059
 40
2.58059
 40
2.69279
 40
2.69279
 40
2.80499
 40
2.80499
 40
2.91719
 40
2.91719
 40
3.14159
 40
3.14159
 40
3.14159
 10
-45
 20
-2.06501e-14
 30
0
 10
-44.9843
 20
-2.07088e-14
 30
0
 10
-44.9686
 20
-2.07675e-14
 30
0
 10
-44.9216
 20
-2.08184e-14
 30
0
 10
-44.8746
 20
-2.08694e-14
 30
0
 10
-44.797
 20
-2.09119e-14
 30
0
 10
-44.7194
 20
-2.09545e-14
 30
0
 10
-44.6121
 20
-2.09882e-14
 30
0
 10
-44.5048
 20
-2.10219e-14
 30
0
 10
-44.3692
 20
-2.10463e-14
 30
0
 10
-44.2336
 20
-2.10707e-14
 30
0
 10
-44.0714
 20
-2.10854e-14
 30
0
 10
-43.9092
 20
-2.11001e-14
 30
0
 10
-43.7223
 20
-2.11051e-14
 30
0
 10
-43.5355
 20
-2.111e-14
 30
0
 10
-43.3265
 20
-2.11051e-14
 30
0
 10
-43.1174
 20
-2.11001e-14
 30
0
 10
-42.8888
 20
-2.10854e-14
 30
0
 10
-42.6602
 20
-2.10707e-14
 30
0
 10
-42.4148
 20
-2.10463e-14
 30
0
 10
-42.1694
 20
-2.10219e-14
 30
0
 10
-41.9104
 20
-2.09882e-14
 30
0
 10
-41.6514
 20
-2.09545e-14
 30
0
 10
-41.382
 20
-2.09119e-14
 30
0
 10
-41.1126
 20
-2.08694e-14
 30
0
 10
-40.5618
 20
-2.07718e-14
 30
0
 10
-40
 20
-2.06501e-14
 30
0
  0
LINE
  5
A12
330
A02
100
AcDbEntity
  8
Sketch038
100
AcDbLine
 10
-45
 20
-2.06501e-14
 30
0
 11
-45
 21
8
 31
0
  0
SPLINE
  5
A13
330
A02
100
AcDbEntity
  8
Sketch038
100
AcDbSpline
210
0
220
0
230
1
 70
8
 71
2
 72
30
 73
27
 74
0
 40
1.5708
 40
1.5708
 40
1.5708
 40
1.683
 40
1.683
 40
1.7952
 40
1.7952
 40
1.9074
 40
1.9074
 40
2.0196
 40
2.0196
 40
2.1318
 40
2.1318
 40
2.24399
 40
2.24399
 40
2.35619
 40
2.35619
 40
2.46839
 40
2.46839
 40
2.58059
 40
2.58059
 40
2.69279
 40
2.69279
 40
2.80499
 40
2.80499
 40
2.91719
 40
2.91719
 40
3.14159
 40
3.14159
 40
3.14159
 10
-45
 20
8
 30
0
 10
-44.9843
 20
8
 30
0
 10
-44.9686
 20
8
 30
0
 10
-44.9216
 20
8
 30
0
 10
-44.8746
 20
8
 30
0
 10
-44.797
 20
8
 30
0
 10
-44.7194
 20
8
 30
0
 10
-44.6121
 20
8
 30
0
 10
-44.5048
 20
8
 30
0
 10
-44.3692
 20
8
 30
0
 10
-44.2336
 20
8
 30
0
 10
-44.0714
 20
8
 30
0
 10
-43.9092
 20
8
 30
0
 10
-43.7223
 20
8
 30
0
 10
-43.5355
 20
8
 30
0
 10
-43.3265
 20
8
 30
0
 10
-43.1174
 20
8
 30
0
 10
-42.8888
 20
8
 30
0
 10
-42.6602
 20
8
 30
0
 10
-42.4148
 20
8
 30
0
 10
-42.1694
 20
8
 30
0
 10
-41.9104
 20
8
 30
0
 10
-41.6514
 20
8
 30
0
 10
-41.382
 20
8
 30
0
 10
-41.1126
 20
8
 30
0
 10
-40.5618
 20
8
 30
0
 10
-40
 20
8
 30
0
  0
LINE
  5
A14
330
A02
100
AcDbEntity
  8
Sketch038
100
AcDbLine
 10
-40
 20
8
 30
0
 11
-32
 21
8
 31
0
  0
SPLINE
  5
A15
330
A02
100
AcDbEntity
  8
Sketch038
100
AcDbSpline
210
0
220
0
230
1
 70
8
 71
1
 72
17
 73
15
 74
0
 40
3.14159
 40
3.14159
 40
3.25379
 40
3.36599
 40
3.47819
 40
3.59039
 40
3.70259
 40
3.81479
 40
3.92699
 40
4.03919
 40
4.15139
 40
4.26359
 40
4.37579
 40
4.48799
 40
4.60019
 40
4.71239
 40
4.71239
 10
-32
 20
8
 30
0
 10
-31.4402
 20
8
 30
0
 10
-30.8874
 20
8
 30
0
 10
-30.3486
 20
8
 30
0
 10
-29.8306
 20
8
 30
0
 10
-29.3398
 20
8
 30
0
 10
-28.8826
 20
8
 30
0
 10
-28.4645
 20
8
 30
0
 10
-28.0908
 20
8
 30
0
 10
-27.7664
 20
8
 30
0
 10
-27.4952
 20
8
 30
0
 10
-27.2806
 20
8
 30
0
 10
-27.1254
 20
8
 30
0
 10
-27.0314
 20
8
 30
0
 10
-27
 20
8
 30
0
  0
SPLINE
  5
A16
330
A02
100
AcDbEntity
  8
Sketch038
100
AcDbSpline
210
0
220
0
230
1
 70
8
 71
2
 72
30
 73
27
 74
0
 40
1.10505e-16
 40
1.10505e-16
 40
1.10505e-16
 40
0.224399
 40
0.224399
 40
0.336599
 40
0.336599
 40
0.448799
 40
0.448799
 40
0.560999
 40
0.560999
 40
0.673198
 40
0.673198
 40
0.785398
 40
0.785398
 40
0.897598
 40
0.897598
 40
1.0098
 40
1.0098
 40
1.122
 40
1.122
 40
1.2342
 40
1.2342
 40
1.3464
 40
1.3464
 40
1.4586
 40
1.4586
 40
1.5708
 40
1.5708
 40
1.5708
 10
-22
 20
8
 30
0
 10
-22.5618
 20
8
 30
0
 10
-23.1126
 20
8
 30
0
 10
-23.382
 20
8
 30
0
 10
-23.6514
 20
8
 30
0
 10
-23.9104
 20
8
 30
0
 10
-24.1694
 20
8
 30
0
 10
-24.4148
 20
8
 30
0
 10
-24.6602
 20
8
 30
0
 10
-24.8888
 20
8
 30
0
 10
-25.1174
 20
8
 30
0
 10
-25.3265
 20
8
 30
0
 10
-25.5355
 20
8
 30
0
 10
-25.7223
 20
8
 30
0
 10
-25.9092
 20
8
 30
0
 10
-26.0714
 20
8
 30
0
 10
-26.2336
 20
8
 30
0
 10
-26.3692
 20
8
 30
0
 10
-26.5048
 20
8
 30
0
 10
-26.6121
 20
8
 30
0
 10
-26.7194
 20
8
 30
0
 10
-26.797
 20
8
 30
0
 10
-26.8746
 20
8
 30
0
 10
-26.9216
 20
8
 30
0
 10
-26.9686
 20
8
 30
0
 10
-26.9843
 20
8
 30
0
 10
-27
 20
8
 30
0
  0
LINE
  5
A17
330
A02
100
AcDbEntity
  8
Sketch038
100
AcDbLine
 10
-22
 20
8
 30
0
 11
-5
 21
8
 31
0
  0
SPLINE
  5
A18
330
A02
100
AcDbEntity
  8
Sketch038
100
AcDbSpline
210
0
220
0
230
1
 70
8
 71
1
 72
17
 73
15
 74
0
 40
3.14159
 40
3.14159
 40
3.25379
 40
3.36599
 40
3.47819
 40
3.59039
 40
3.70259
 40
3.81479
 40
3.92699
 40
4.03919
 40
4.15139
 40
4.26359
 40
4.37579
 40
4.48799
 40
4.60019
 40
4.71239
 40
4.71239
 10
-5
 20
8
 30
0
 10
-4.44018
 20
8
 30
0
 10
-3.8874
 20
8
 30
0
 10
-3.3486
 20
8
 30
0
 10
-2.83058
 20
8
 30
0
 10
-2.33984
 20
8
 30
0
 10
-1.88255
 20
8
 30
0
 10
-1.46447
 20
8
 30
0
 10
-1.09084
 20
8
 30
0
 10
-0.766379
 20
8
 30
0
 10
-0.495156
 20
8
 30
0
 10
-0.280583
 20
8
 30
0
 10
-0.12536
 20
8
 30
0
 10
-0.031439
 20
8
 30
0
 10
3.39728e-14
 20
8
 30
0
  0
LINE
  5
A19
330
A02
100
AcDbEntity
  8
Sketch038
100
AcDbLine
 10
3.61725e-14
 20
-5.55112e-15
 30
0
 11
3.3952e-14
 21
8
 31
0
  0
LINE
  5
A1A
330
A02
100
AcDbEntity
  8
Sketch038
100
AcDbLine
 10
3.66166e-14
 20
-7.32747e-15
 30
0
 11
3.66166e-14
 21
-75
 31
0
  0
LINE
  5
A1B
330
A02
100
AcDbEntity
  8
Sketch038
100
AcDbLine
 10
-10
 20
-75
 30
0
 11
3.55271e-14
 21
-75
 31
0
  0
LINE
  5
A1C
330
A02
100
AcDbEntity
  8
Sketch038
100
AcDbLine
 10
-10
 20
-83
 30
0
 11
-10
 21
-75
 31
0
  0
LINE
  5
A1D
330
A02
100
AcDbEntity
  8
Sketch038
100
AcDbLine
 10
-30
 20
-83
 30
0
 11
-10
 21
-83
 31
0
  0
LINE
  5
A1E
330
A02
100
AcDbEntity
  8
Sketch038
100
AcDbLine
 10
-30
 20
-75
 30
0
 11
-30
 21
-83
 31
0
  0
LINE
  5
A1F
330
A02
100
AcDbEntity
  8
Sketch038
100
AcDbLine
 10
-55
 20
-75
 30
0
 11
-30
 21
-75
 31
0
  0
LINE
  5
A20
330
A02
100
AcDbEntity
  8
Sketch038
100
AcDbLine
 10
-55
 20
-83
 30
0
 11
-55
 21
-75
 31
0
  0
LINE
  5
A21
330
A02
100
AcDbEntity
  8
Sketch038
100
AcDbLine
 10
-70
 20
-83
 30
0
 11
-55
 21
-83
 31
0
  0
LINE
  5
A22
330
A02
100
AcDbEntity
  8
Sketch038
100
AcDbLine
 10
-70
 20
-2.06501e-14
 30
0
 11
-70
 21
-83
 31
0
  0
LINE
  5
A23
330
A02
100
AcDbEntity
  8
Sketch038
100
AcDbLine
 10
-70
 20
-2.06501e-14
 30
0
 11
-70
 21
8
 31
0
  0
LINE
  5
A24
330
A02
100
AcDbEntity
  8
Sketch038
100
AcDbLine
 10
-55
 20
8
 30
0
 11
-70
 21
8
 31
0
  0
LINE
  5
A25
330
A02
100
AcDbEntity
  8
Sketch038
100
AcDbLine
 10
-55
 20
-1.73195e-14
 30
0
 11
-55
 21
8
 31
0
  0
SPLINE
  5
A26
330
A02
100
AcDbEntity
  8
Sketch038
100
AcDbSpline
210
0
220
0
230
1
 70
8
 71
1
 72
17
 73
15
 74
0
 40
4.71239
 40
4.71239
 40
4.82459
 40
4.93679
 40
5.04899
 40
5.16119
 40
5.27339
 40
5.38559
 40
5.49779
 40
5.60999
 40
5.72219
 40
5.83439
 40
5.94659
 40
6.05879
 40
6.17099
 40
6.28319
 40
6.28319
 10
-45
 20
-1.73195e-14
 30
0
 10
-45.0629
 20
-1.70848e-14
 30
0
 10
-45.2507
 20
-1.68811e-14
 30
0
 10
-45.5612
 20
-1.67107e-14
 30
0
 10
-45.9903
 20
-1.6576e-14
 30
0
 10
-46.5328
 20
-1.64785e-14
 30
0
 10
-47.1817
 20
-1.64195e-14
 30
0
 10
-47.9289
 20
-1.63997e-14
 30
0
 10
-48.7651
 20
-1.64195e-14
 30
0
 10
-49.6797
 20
-1.64785e-14
 30
0
 10
-50.6612
 20
-1.6576e-14
 30
0
 10
-51.6972
 20
-1.67107e-14
 30
0
 10
-52.7748
 20
-1.68811e-14
 30
0
 10
-53.8804
 20
-1.70848e-14
 30
0
 10
-55
 20
-1.73195e-14
 30
0
  0
LINE
  5
A27
330
A02
100
AcDbEntity
  8
Sketch038
100
AcDbLine
 10
-40
 20
-2.06501e-14
 30
0
 11
-40
 21
8
 31
0
  0
SPLINE
  5
A28
330
A02
100
AcDbEntity
  8
Sketch038
100
AcDbSpline
210
0
220
0
230
1
 70
8
 71
1
 72
17
 73
15
 74
0
 40
4.71239
 40
4.71239
 40
4.82459
 40
4.93679
 40
5.04899
 40
5.16119
 40
5.27339
 40
5.38559
 40
5.49779
 40
5.60999
 40
5.72219
 40
5.83439
 40
5.94659
 40
6.05879
 40
6.17099
 40
6.28319
 40
6.28319
 10
-45
 20
8
 30
0
 10
-45.0629
 20
8
 30
0
 10
-45.2507
 20
8
 30
0
 10
-45.5612
 20
8
 30
0
 10
-45.9903
 20
8
 30
0
 10
-46.5328
 20
8
 30
0
 10
-47.1817
 20
8
 30
0
 10
-47.9289
 20
8
 30
0
 10
-48.7651
 20
8
 30
0
 10
-49.6797
 20
8
 30
0
 10
-50.6612
 20
8
 30
0
 10
-51.6972
 20
8
 30
0
 10
-52.7748
 20
8
 30
0
 10
-53.8804
 20
8
 30
0
 10
-55
 20
8
 30
0
  0
SPLINE
  5
A29
330
A02
100
AcDbEntity
  8
Sketch038
100
AcDbSpline
210
0
220
0
230
1
 70
8
 71
2
 72
30
 73
27
 74
0
 40
1.5708
 40
1.5708
 40
1.5708
 40
1.683
 40
1.683
 40
1.7952
 40
1.7952
 40
1.9074
 40
1.9074
 40
2.0196
 40
2.0196
 40
2.1318
 40
2.1318
 40
2.24399
 40
2.24399
 40
2.35619
 40
2.35619
 40
2.46839
 40
2.46839
 40
2.58059
 40
2.58059
 40
2.69279
 40
2.69279
 40
2.80499
 40
2.80499
 40
2.91719
 40
2.91719
 40
3.14159
 40
3.14159
 40
3.14159
 10
-75
 20
8
 30
0
 10
-74.9843
 20
8
 30
0
 10
-74.9686
 20
8
 30
0
 10
-74.9216
 20
8
 30
0
 10
-74.8746
 20
8
 30
0
 10
-74.797
 20
8
 30
0
 10
-74.7194
 20
8
 30
0
 10
-74.6121
 20
8
 30
0
 10
-74.5048
 20
8
 30
0
 10
-74.3692
 20
8
 30
0
 10
-74.2336
 20
8
 30
0
 10
-74.0714
 20
8
 30
0
 10
-73.9092
 20
8
 30
0
 10
-73.7223
 20
8
 30
0
 10
-73.5355
 20
8
 30
0
 10
-73.3265
 20
8
 30
0
 10
-73.1174
 20
8
 30
0
 10
-72.8888
 20
8
 30
0
 10
-72.6602
 20
8
 30
0
 10
-72.4148
 20
8
 30
0
 10
-72.1694
 20
8
 30
0
 10
-71.9104
 20
8
 30
0
 10
-71.6514
 20
8
 30
0
 10
-71.382
 20
8
 30
0
 10
-71.1126
 20
8
 30
0
 10
-70.5618
 20
8
 30
0
 10
-70
 20
8
 30
0
  0
LINE
  5
A2A
330
A02
100
AcDbEntity
  8
Sketch038
100
AcDbLine
 10
-75
 20
-2.06501e-14
 30
0
 11
-75
 21
8
 31
0
  0
SPLINE
  5
A2B
330
A02
100
AcDbEntity
  8
Sketch038
100
AcDbSpline
210
0
220
0
230
1
 70
8
 71
2
 72
30
 73
27
 74
0
 40
1.5708
 40
1.5708
 40
1.5708
 40
1.683
 40
1.683
 40
1.7952
 40
1.7952
 40
1.9074
 40
1.9074
 40
2.0196
 40
2.0196
 40
2.1318
 40
2.1318
 40
2.24399
 40
2.24399
 40
2.35619
 40
2.35619
 40
2.46839
 40
2.46839
 40
2.58059
 40
2.58059
 40
2.69279
 40
2.69279
 40
2.80499
 40
2.80499
 40
2.91719
 40
2.91719
 40
3.14159
 40
3.14159
 40
3.14159
 10
-75
 20
-2.06501e-14
 30
0
 10
-74.9843
 20
-2.07088e-14
 30
0
 10
-74.9686
 20
-2.07675e-14
 30
0
 10
-74.9216
 20
-2.08184e-14
 30
0
 10
-74.8746
 20
-2.08694e-14
 30
0
 10
-74.797
 20
-2.09119e-14
 30
0
 10
-74.7194
 20
-2.09545e-14
 30
0
 10
-74.6121
 20
-2.09882e-14
 30
0
 10
-74.5048
 20
-2.10219e-14
 30
0
 10
-74.3692
 20
-2.10463e-14
 30
0
 10
-74.2336
 20
-2.10707e-14
 30
0
 10
-74.0714
 20
-2.10854e-14
 30
0
 10
-73.9092
 20
-2.11001e-14
 30
0
 10
-73.7223
 20
-2.11051e-14
 30
0
 10
-73.5355
 20
-2.111e-14
 30
0
 10
-73.3265
 20
-2.11051e-14
 30
0
 10
-73.1174
 20
-2.11001e-14
 30
0
 10
-72.8888
 20
-2.10854e-14
 30
0
 10
-72.6602
 20
-2.10707e-14
 30
0
 10
-72.4148
 20
-2.10463e-14
 30
0
 10
-72.1694
 20
-2.10219e-14
 30
0
 10
-71.9104
 20
-2.09882e-14
 30
0
 10
-71.6514
 20
-2.09545e-14
 30
0
 10
-71.382
 20
-2.09119e-14
 30
0
 10
-71.1126
 20
-2.08694e-14
 30
0
 10
-70.5618
 20
-2.07718e-14
 30
0
 10
-70
 20
-2.06501e-14
 30
0
  0
ENDSEC
  0
SECTION
  2
OBJECTS
  0
DICTIONARY
  5
F000
330
0
100
AcDbDictionary
  3
ACAD_GROUP
350
F001
  0
DICTIONARY
  5
F001
330
F000
100
AcDbDictionary
  0
ENDSEC
  0
EOF