999
FreeCAD v2024.123 14555 (Git shallow)
  0
SECTION
  2
HEADER
  9
$ACADVER
  1
AC1014
  9
$ACADMAINTVER
 70
     9
  9
$DWGCODEPAGE
  3
ANSI_1252
  9
$TEXTSTYLE
  7
STANDARD
  9
$DIMSTYLE
  2
STANDARD
  9
$DIMTXSTY
  7
STANDARD
  9
$CMLSTYLE
  2
STANDARD
  9
$LUNITS
 70
2
  9
$INSUNITS
 70
4
  9
$PEXTMAX
 10
50
 20
50
 30
50
  9
$PEXTMIN
 10
0
 20
0
 30
0
  9
$HANDSEED
  5
FFFF
  0
ENDSEC
  0
SECTION
  2
CLASSES
  0
CLASS
  1
ACDBDICTIONARYWDFLT
  2
AcDbDictionaryWithDefault
  3
ObjectDBX Classes
 90
        0
280
     0
281
     0
  0
CLASS
  1
XRECORD
  2
AcDbXrecord
  3
ObjectDBX Classes
 90
        0
280
     0
281
     0
  0
CLASS
  1
LWPOLYLINE
  2
AcDbPolyline
  3
ObjectDBX Classes
 90
        0
280
     0
281
     1
  0
ENDSEC
  0
SECTION
  2
TABLES
  0
TABLE
  2
VPORT
  5
20
330
0
100
AcDbSymbolTable
 70
     1
  0
VPORT
  5
21
330
20
100
AcDbSymbolTableRecord
100
AcDbViewportTableRecord
  2
*ACTIVE
 70
     0
  0
ENDTAB
  0
TABLE
  2
LTYPE
  5
22
330
0
100
AcDbSymbolTable
 70
     1
  0
LTYPE
  5
23
330
21
100
AcDbSymbolTableRecord
100
AcDbLinetypeTableRecord
  2
BYBLOCK
 70
     0
  3

 72
    65
 73
     0
 40
0.0
  0
LTYPE
  5
24
330
21
100
AcDbSymbolTableRecord
100
AcDbLinetypeTableRecord
  2
BYLAYER
 70
     0
  3

 72
    65
 73
     0
 40
0.0
  0
LTYPE
  5
25
330
21
100
AcDbSymbolTableRecord
100
AcDbLinetypeTableRecord
  2
CONTINUOUS
 70
     0
  3
Solid line
 72
    65
 73
     0
 40
0.0
  0
ENDTAB
  0
TABLE
  2
LAYER
  5
A34
330
0
100
AcDbSymbolTable
 70
3
  0
LAYER
  5
A35
330
A34
100
AcDbSymbolTableRecord
100
AcDbLayerTableRecord
  2
0
 70
   0
 62
   7
  6
CONTINUOUS
  0
LAYER
  5
A36
330
A34
100
AcDbSymbolTableRecord
100
AcDbLayerTableRecord
  2
none
 70
    0
 62
    7
  6
CONTINUOUS
  0
LAYER
  5
A37
330
A34
100
AcDbSymbolTableRecord
100
AcDbLayerTableRecord
  2
Sketch038
 70
    0
 62
    7
  6
CONTINUOUS
  0
ENDTAB
  0
TABLE
  2
STYLE
  5
70
330
0
100
AcDbSymbolTable
 70
     2
  0
STYLE
  5
71
330
70
100
AcDbSymbolTableRecord
100
AcDbTextStyleTableRecord
  2
STANDARD
 70
     0
 40
0.0
 41
1.0
 50
0.0
 71
     0
 42
2.5
  3
arial.ttf
  4

  0
STYLE
  5
72
330
70
100
AcDbSymbolTableRecord
100
AcDbTextStyleTableRecord
  2
ANNOTATIVE
 70
     0
 40
0.0
 41
1.0
 50
0.0
 71
     0
 42
2.5
  3
arial.ttf
  4

  0
ENDTAB
  0
TABLE
  2
VIEW
  5
73
330
0
100
AcDbSymbolTable
 70
     0
  0
ENDTAB
  0
TABLE
  2
UCS
  5
74
330
0
100
AcDbSymbolTable
 70
     0
  0
ENDTAB
  0
TABLE
  2
APPID
  5
75
330
0
100
AcDbSymbolTable
 70
     2
  0
APPID
  5
76
330
75
100
AcDbSymbolTableRecord
100
AcDbRegAppTableRecord
  2
ACAD
 70
     0
  0
APPID
  5
77
330
75
100
AcDbSymbolTableRecord
100
AcDbRegAppTableRecord
  2
ACADANNOTATIVE
 70
     0
  0
ENDTAB
  0
TABLE
  2
DIMSTYLE
  5
78
330
0
100
AcDbSymbolTable
 70
     2
  0
DIMSTYLE
105
79
330
78
100
AcDbSymbolTableRecord
100
AcDbDimStyleTableRecord
  2
STANDARD
 70
     0
  3

  4

  5

  6

  7

 40
0.0
 41
2.5
 42
0.625
 43
3.75
 44
1.25
 45
0.0
 46
0.0
 47
0.0
 48
0.0
140
2.5
141
2.5
142
0.0
143
0.03937007874016
144
1.0
145
0.0
146
1.0
147
0.625
 71
     0
 72
     0
 73
     0
 74
     0
 75
     0
 76
     0
 77
     1
 78
     8
170
     0
171
     3
172
     1
173
     0
174
     0
175
     0
176
     0
177
     0
178
     0
270
     2
271
     2
272
     2
273
     2
274
     3
340
71
275
     0
280
     0
281
     0
282
     0
283
     0
284
     8
285
     0
286
     0
287
     3
288
     0
  0
ENDTAB
  0
TABLE
  2
BLOCK_RECORD
  5
A01
330
0
100
AcDbSymbolTable
  70
5
  0
BLOCK_RECORD
  5
A02
330
A01
100
AcDbSymbolTableRecord
100
AcDbBlockTableRecord
  2
*MODEL_SPACE
  0
BLOCK_RECORD
  5
A03
330
A01
100
AcDbSymbolTableRecord
100
AcDbBlockTableRecord
  2
*PAPER_SPACE
  0
ENDTAB
  0
ENDSEC
  0
SECTION
  2
BLOCKS
  0
BLOCK
  5
A04
330
A02
100
AcDbEntity
  8
0
100
AcDbBlockBegin
  2
*MODEL_SPACE
 70
   0
 10
0
 20
0
 30
0
  3
*MODEL_SPACE
  1
 
  0
ENDBLK
  5
A05
330
A02
100
AcDbEntity
  8
0
100
AcDbBlockEnd
  0
BLOCK
  5
A06
330
A03
100
AcDbEntity
 67
1
  8
0
100
AcDbBlockBegin
  2
*PAPER_SPACE
 70
   0
 10
0
 20
0
 30
0
  3
*PAPER_SPACE
  1
 
  0
ENDBLK
  5
A07
330
A03
100
AcDbEntity
 67
    1
  8
0
100
AcDbBlockEnd
  0
ENDSEC
  0
SECTION
  2
ENTITIES
  0
LINE
  5
A08
330
A02
100
AcDbEntity
  8
Sketch038
100
AcDbLine
 10
-1.73195e-14
 20
-33
 30
0
 11
8
 21
-33
 31
0
  0
SPLINE
  5
A09
330
A02
100
AcDbEntity
  8
Sketch038
100
AcDbSpline
210
0
220
0
230
1
 70
8
 71
1
 72
17
 73
15
 74
0
 40
1.5708
 40
1.5708
 40
1.683
 40
1.7952
 40
1.9074
 40
2.0196
 40
2.1318
 40
2.24399
 40
2.35619
 40
2.46839
 40
2.58059
 40
2.69279
 40
2.80499
 40
2.91719
 40
3.02939
 40
3.14159
 40
3.14159
 10
8
 20
-18
 30
0
 10
8
 20
-18.5598
 30
0
 10
8
 20
-19.1126
 30
0
 10
8
 20
-19.6514
 30
0
 10
8
 20
-20.1694
 30
0
 10
8
 20
-20.6602
 30
0
 10
8
 20
-21.1174
 30
0
 10
8
 20
-21.5355
 30
0
 10
8
 20
-21.9092
 30
0
 10
8
 20
-22.2336
 30
0
 10
8
 20
-22.5048
 30
0
 10
8
 20
-22.7194
 30
0
 10
8
 20
-22.8746
 30
0
 10
8
 20
-22.9686
 30
0
 10
8
 20
-23
 30
0
  0
LINE
  5
A0A
330
A02
100
AcDbEntity
  8
Sketch038
100
AcDbLine
 10
-2.06501e-14
 20
-18
 30
0
 11
8
 21
-18
 31
0
  0
LINE
  5
A0B
330
A02
100
AcDbEntity
  8
Sketch038
100
AcDbLine
 10
8
 20
-5
 30
0
 11
8
 21
-18
 31
0
  0
LINE
  5
A0C
330
A02
100
AcDbEntity
  8
Sketch038
100
AcDbLine
 10
-1.77636e-14
 20
-5
 30
0
 11
8
 21
-5
 31
0
  0
SPLINE
  5
A0D
330
A02
100
AcDbEntity
  8
Sketch038
100
AcDbSpline
210
0
220
0
230
1
 70
8
 71
2
 72
30
 73
27
 74
0
 40
-8.88178e-16
 40
-8.88178e-16
 40
-8.88178e-16
 40
0.1122
 40
0.1122
 40
0.224399
 40
0.224399
 40
0.336599
 40
0.336599
 40
0.448799
 40
0.448799
 40
0.560999
 40
0.560999
 40
0.673198
 40
0.673198
 40
0.785398
 40
0.785398
 40
0.897598
 40
0.897598
 40
1.0098
 40
1.0098
 40
1.122
 40
1.122
 40
1.2342
 40
1.2342
 40
1.3464
 40
1.3464
 40
1.5708
 40
1.5708
 40
1.5708
 10
8
 20
1.37668e-14
 30
0
 10
8
 20
-0.0157195
 30
0
 10
8
 20
-0.031439
 30
0
 10
8
 20
-0.0783997
 30
0
 10
8
 20
-0.12536
 30
0
 10
8
 20
-0.202972
 30
0
 10
8
 20
-0.280583
 30
0
 10
8
 20
-0.38787
 30
0
 10
8
 20
-0.495156
 30
0
 10
8
 20
-0.630767
 30
0
 10
8
 20
-0.766379
 30
0
 10
8
 20
-0.928611
 30
0
 10
8
 20
-1.09084
 30
0
 10
8
 20
-1.27765
 30
0
 10
8
 20
-1.46447
 30
0
 10
8
 20
-1.67351
 30
0
 10
8
 20
-1.88255
 30
0
 10
8
 20
-2.1112
 30
0
 10
8
 20
-2.33984
 30
0
 10
8
 20
-2.58521
 30
0
 10
8
 20
-2.83058
 30
0
 10
8
 20
-3.08959
 30
0
 10
8
 20
-3.3486
 30
0
 10
8
 20
-3.618
 30
0
 10
8
 20
-3.8874
 30
0
 10
8
 20
-4.4382
 30
0
 10
8
 20
-5
 30
0
  0
LINE
  5
A0E
330
A02
100
AcDbEntity
  8
Sketch038
100
AcDbLine
 10
-1.55431e-14
 20
1.55431e-14
 30
0
 11
8
 21
1.37668e-14
 31
0
  0
SPLINE
  5
A0F
330
A02
100
AcDbEntity
  8
Sketch038
100
AcDbSpline
210
0
220
0
230
1
 70
8
 71
2
 72
30
 73
27
 74
0
 40
-8.88178e-16
 40
-8.88178e-16
 40
-8.88178e-16
 40
0.1122
 40
0.1122
 40
0.224399
 40
0.224399
 40
0.336599
 40
0.336599
 40
0.448799
 40
0.448799
 40
0.560999
 40
0.560999
 40
0.673198
 40
0.673198
 40
0.785398
 40
0.785398
 40
0.897598
 40
0.897598
 40
1.0098
 40
1.0098
 40
1.122
 40
1.122
 40
1.2342
 40
1.2342
 40
1.3464
 40
1.3464
 40
1.5708
 40
1.5708
 40
1.5708
 10
-1.55431e-14
 20
1.55431e-14
 30
0
 10
-1.56088e-14
 20
-0.0157195
 30
0
 10
-1.56744e-14
 20
-0.031439
 30
0
 10
-1.57462e-14
 20
-0.0783997
 30
0
 10
-1.5818e-14
 20
-0.12536
 30
0
 10
-1.58951e-14
 20
-0.202972
 30
0
 10
-1.59721e-14
 20
-0.280583
 30
0
 10
-1.60534e-14
 20
-0.38787
 30
0
 10
-1.61348e-14
 20
-0.495156
 30
0
 10
-1.62194e-14
 20
-0.630767
 30
0
 10
-1.6304e-14
 20
-0.766379
 30
0
 10
-1.63908e-14
 20
-0.928611
 30
0
 10
-1.64776e-14
 20
-1.09084
 30
0
 10
-1.65654e-14
 20
-1.27765
 30
0
 10
-1.66533e-14
 20
-1.46447
 30
0
 10
-1.67412e-14
 20
-1.67351
 30
0
 10
-1.68291e-14
 20
-1.88255
 30
0
 10
-1.69159e-14
 20
-2.1112
 30
0
 10
-1.70027e-14
 20
-2.33984
 30
0
 10
-1.70873e-14
 20
-2.58521
 30
0
 10
-1.71719e-14
 20
-2.83058
 30
0
 10
-1.72532e-14
 20
-3.08959
 30
0
 10
-1.73346e-14
 20
-3.3486
 30
0
 10
-1.74116e-14
 20
-3.618
 30
0
 10
-1.74887e-14
 20
-3.8874
 30
0
 10
-1.76357e-14
 20
-4.4382
 30
0
 10
-1.77636e-14
 20
-5
 30
0
  0
LINE
  5
A10
330
A02
100
AcDbEntity
  8
Sketch038
100
AcDbLine
 10
-1.77636e-14
 20
-5
 30
0
 11
-2.06501e-14
 21
-18
 31
0
  0
SPLINE
  5
A11
330
A02
100
AcDbEntity
  8
Sketch038
100
AcDbSpline
210
0
220
0
230
1
 70
8
 71
1
 72
17
 73
15
 74
0
 40
1.5708
 40
1.5708
 40
1.683
 40
1.7952
 40
1.9074
 40
2.0196
 40
2.1318
 40
2.24399
 40
2.35619
 40
2.46839
 40
2.58059
 40
2.69279
 40
2.80499
 40
2.91719
 40
3.02939
 40
3.14159
 40
3.14159
 10
-2.06501e-14
 20
-18
 30
0
 10
-2.07675e-14
 20
-18.5598
 30
0
 10
-2.08694e-14
 20
-19.1126
 30
0
 10
-2.09545e-14
 20
-19.6514
 30
0
 10
-2.10219e-14
 20
-20.1694
 30
0
 10
-2.10707e-14
 20
-20.6602
 30
0
 10
-2.11001e-14
 20
-21.1174
 30
0
 10
-2.111e-14
 20
-21.5355
 30
0
 10
-2.11001e-14
 20
-21.9092
 30
0
 10
-2.10707e-14
 20
-22.2336
 30
0
 10
-2.10219e-14
 20
-22.5048
 30
0
 10
-2.09545e-14
 20
-22.7194
 30
0
 10
-2.08694e-14
 20
-22.8746
 30
0
 10
-2.07675e-14
 20
-22.9686
 30
0
 10
-2.06501e-14
 20
-23
 30
0
  0
LINE
  5
A12
330
A02
100
AcDbEntity
  8
Sketch038
100
AcDbLine
 10
-1.82077e-14
 20
-23
 30
0
 11
-75
 21
-23
 31
0
  0
LINE
  5
A13
330
A02
100
AcDbEntity
  8
Sketch038
100
AcDbLine
 10
-75
 20
-23
 30
0
 11
-75
 21
-30.5
 31
0
  0
LINE
  5
A14
330
A02
100
AcDbEntity
  8
Sketch038
100
AcDbLine
 10
-75
 20
-30.5
 30
0
 11
-83
 21
-30.5
 31
0
  0
LINE
  5
A15
330
A02
100
AcDbEntity
  8
Sketch038
100
AcDbLine
 10
-83
 20
-30.5
 30
0
 11
-83
 21
-45.5
 31
0
  0
LINE
  5
A16
330
A02
100
AcDbEntity
  8
Sketch038
100
AcDbLine
 10
-83
 20
-45.5
 30
0
 11
-75
 21
-45.5
 31
0
  0
LINE
  5
A17
330
A02
100
AcDbEntity
  8
Sketch038
100
AcDbLine
 10
-75
 20
-45.5
 30
0
 11
-75
 21
-53
 31
0
  0
LINE
  5
A18
330
A02
100
AcDbEntity
  8
Sketch038
100
AcDbLine
 10
-75
 20
-53
 30
0
 11
-68.25
 21
-53
 31
0
  0
ARC
  5
A19
330
A02
100
AcDbEntity
  8
Sketch038
100
AcDbCircle
 10
-68.25
 20
-49
 30
0
 40
4
100
AcDbArc
 50
-90
 51
0
  0
LINE
  5
A1A
330
A02
100
AcDbEntity
  8
Sketch038
100
AcDbLine
 10
-64.25
 20
-49
 30
0
 11
-64.25
 21
-41.5969
 31
0
  0
ARC
  5
A1B
330
A02
100
AcDbEntity
  8
Sketch038
100
AcDbCircle
 10
-62.5
 20
-38
 30
0
 40
4
100
AcDbArc
 50
-64.0555
 51
-115.944
  0
LINE
  5
A1C
330
A02
100
AcDbEntity
  8
Sketch038
100
AcDbLine
 10
-60.75
 20
-49
 30
0
 11
-60.75
 21
-41.5969
 31
0
  0
ARC
  5
A1D
330
A02
100
AcDbEntity
  8
Sketch038
100
AcDbCircle
 10
-56.75
 20
-49
 30
0
 40
4
100
AcDbArc
 50
180
 51
-90
  0
LINE
  5
A1E
330
A02
100
AcDbEntity
  8
Sketch038
100
AcDbLine
 10
-56.75
 20
-53
 30
0
 11
-43.25
 21
-53
 31
0
  0
ARC
  5
A1F
330
A02
100
AcDbEntity
  8
Sketch038
100
AcDbCircle
 10
-43.25
 20
-49
 30
0
 40
4
100
AcDbArc
 50
-90
 51
0
  0
LINE
  5
A20
330
A02
100
AcDbEntity
  8
Sketch038
100
AcDbLine
 10
-39.25
 20
-49
 30
0
 11
-39.25
 21
-41.5969
 31
0
  0
ARC
  5
A21
330
A02
100
AcDbEntity
  8
Sketch038
100
AcDbCircle
 10
-37.5
 20
-38
 30
0
 40
4
100
AcDbArc
 50
-64.0555
 51
-115.944
  0
LINE
  5
A22
330
A02
100
AcDbEntity
  8
Sketch038
100
AcDbLine
 10
-35.75
 20
-49
 30
0
 11
-35.75
 21
-41.5969
 31
0
  0
ARC
  5
A23
330
A02
100
AcDbEntity
  8
Sketch038
100
AcDbCircle
 10
-31.75
 20
-49
 30
0
 40
4
100
AcDbArc
 50
180
 51
-90
  0
LINE
  5
A24
330
A02
100
AcDbEntity
  8
Sketch038
100
AcDbLine
 10
-31.75
 20
-53
 30
0
 11
-18.25
 21
-53
 31
0
  0
ARC
  5
A25
330
A02
100
AcDbEntity
  8
Sketch038
100
AcDbCircle
 10
-18.25
 20
-49
 30
0
 40
4
100
AcDbArc
 50
-90
 51
0
  0
LINE
  5
A26
330
A02
100
AcDbEntity
  8
Sketch038
100
AcDbLine
 10
-14.25
 20
-49
 30
0
 11
-14.25
 21
-41.5969
 31
0
  0
ARC
  5
A27
330
A02
100
AcDbEntity
  8
Sketch038
100
AcDbCircle
 10
-12.5
 20
-38
 30
0
 40
4
100
AcDbArc
 50
-64.0555
 51
-115.944
  0
LINE
  5
A28
330
A02
100
AcDbEntity
  8
Sketch038
100
AcDbLine
 10
-10.75
 20
-49
 30
0
 11
-10.75
 21
-41.5969
 31
0
  0
ARC
  5
A29
330
A02
100
AcDbEntity
  8
Sketch038
100
AcDbCircle
 10
-6.75
 20
-49
 30
0
 40
4
100
AcDbArc
 50
180
 51
-90
  0
LINE
  5
A2A
330
A02
100
AcDbEntity
  8
Sketch038
100
AcDbLine
 10
-6.75
 20
-53
 30
0
 11
-1.42109e-14
 21
-53
 31
0
  0
SPLINE
  5
A2B
330
A02
100
AcDbEntity
  8
Sketch038
100
AcDbSpline
210
0
220
0
230
1
 70
8
 71
1
 72
17
 73
15
 74
0
 40
1.5708
 40
1.5708
 40
1.683
 40
1.7952
 40
1.9074
 40
2.0196
 40
2.1318
 40
2.24399
 40
2.35619
 40
2.46839
 40
2.58059
 40
2.69279
 40
2.80499
 40
2.91719
 40
3.02939
 40
3.14159
 40
3.14159
 10
-2.06501e-14
 20
-48
 30
0
 10
-2.07675e-14
 20
-48.5598
 30
0
 10
-2.08694e-14
 20
-49.1126
 30
0
 10
-2.09545e-14
 20
-49.6514
 30
0
 10
-2.10219e-14
 20
-50.1694
 30
0
 10
-2.10707e-14
 20
-50.6602
 30
0
 10
-2.11001e-14
 20
-51.1174
 30
0
 10
-2.111e-14
 20
-51.5355
 30
0
 10
-2.11001e-14
 20
-51.9092
 30
0
 10
-2.10707e-14
 20
-52.2336
 30
0
 10
-2.10219e-14
 20
-52.5048
 30
0
 10
-2.09545e-14
 20
-52.7194
 30
0
 10
-2.08694e-14
 20
-52.8746
 30
0
 10
-2.07675e-14
 20
-52.9686
 30
0
 10
-2.06501e-14
 20
-53
 30
0
  0
LINE
  5
A2C
330
A02
100
AcDbEntity
  8
Sketch038
100
AcDbLine
 10
-2.06501e-14
 20
-48
 30
0
 11
-1.73195e-14
 21
-33
 31
0
  0
SPLINE
  5
A2D
330
A02
100
AcDbEntity
  8
Sketch038
100
AcDbSpline
210
0
220
0
230
1
 70
8
 71
1
 72
17
 73
15
 74
0
 40
4.71239
 40
4.71239
 40
4.82459
 40
4.93679
 40
5.04899
 40
5.16119
 40
5.27339
 40
5.38559
 40
5.49779
 40
5.60999
 40
5.72219
 40
5.83439
 40
5.94659
 40
6.05879
 40
6.17099
 40
6.28319
 40
6.28319
 10
-1.73195e-14
 20
-33
 30
0
 10
-1.70848e-14
 20
-31.8804
 30
0
 10
-1.68811e-14
 20
-30.7748
 30
0
 10
-1.67107e-14
 20
-29.6972
 30
0
 10
-1.6576e-14
 20
-28.6612
 30
0
 10
-1.64785e-14
 20
-27.6797
 30
0
 10
-1.64195e-14
 20
-26.7651
 30
0
 10
-1.63997e-14
 20
-25.9289
 30
0
 10
-1.64195e-14
 20
-25.1817
 30
0
 10
-1.64785e-14
 20
-24.5328
 30
0
 10
-1.6576e-14
 20
-23.9903
 30
0
 10
-1.67107e-14
 20
-23.5612
 30
0
 10
-1.68811e-14
 20
-23.2507
 30
0
 10
-1.70848e-14
 20
-23.0629
 30
0
 10
-1.73195e-14
 20
-23
 30
0
  0
LINE
  5
A2E
330
A02
100
AcDbEntity
  8
Sketch038
100
AcDbLine
 10
-2.06501e-14
 20
-23
 30
0
 11
8
 21
-23
 31
0
  0
SPLINE
  5
A2F
330
A02
100
AcDbEntity
  8
Sketch038
100
AcDbSpline
210
0
220
0
230
1
 70
8
 71
1
 72
17
 73
15
 74
0
 40
4.71239
 40
4.71239
 40
4.82459
 40
4.93679
 40
5.04899
 40
5.16119
 40
5.27339
 40
5.38559
 40
5.49779
 40
5.60999
 40
5.72219
 40
5.83439
 40
5.94659
 40
6.05879
 40
6.17099
 40
6.28319
 40
6.28319
 10
8
 20
-33
 30
0
 10
8
 20
-31.8804
 30
0
 10
8
 20
-30.7748
 30
0
 10
8
 20
-29.6972
 30
0
 10
8
 20
-28.6612
 30
0
 10
8
 20
-27.6797
 30
0
 10
8
 20
-26.7651
 30
0
 10
8
 20
-25.9289
 30
0
 10
8
 20
-25.1817
 30
0
 10
8
 20
-24.5328
 30
0
 10
8
 20
-23.9903
 30
0
 10
8
 20
-23.5612
 30
0
 10
8
 20
-23.2507
 30
0
 10
8
 20
-23.0629
 30
0
 10
8
 20
-23
 30
0
  0
LINE
  5
A30
330
A02
100
AcDbEntity
  8
Sketch038
100
AcDbLine
 10
8
 20
-48
 30
0
 11
8
 21
-33
 31
0
  0
SPLINE
  5
A31
330
A02
100
AcDbEntity
  8
Sketch038
100
AcDbSpline
210
0
220
0
230
1
 70
8
 71
1
 72
17
 73
15
 74
0
 40
1.5708
 40
1.5708
 40
1.683
 40
1.7952
 40
1.9074
 40
2.0196
 40
2.1318
 40
2.24399
 40
2.35619
 40
2.46839
 40
2.58059
 40
2.69279
 40
2.80499
 40
2.91719
 40
3.02939
 40
3.14159
 40
3.14159
 10
8
 20
-48
 30
0
 10
8
 20
-48.5598
 30
0
 10
8
 20
-49.1126
 30
0
 10
8
 20
-49.6514
 30
0
 10
8
 20
-50.1694
 30
0
 10
8
 20
-50.6602
 30
0
 10
8
 20
-51.1174
 30
0
 10
8
 20
-51.5355
 30
0
 10
8
 20
-51.9092
 30
0
 10
8
 20
-52.2336
 30
0
 10
8
 20
-52.5048
 30
0
 10
8
 20
-52.7194
 30
0
 10
8
 20
-52.8746
 30
0
 10
8
 20
-52.9686
 30
0
 10
8
 20
-53
 30
0
  0
LINE
  5
A32
330
A02
100
AcDbEntity
  8
Sketch038
100
AcDbLine
 10
-2.06501e-14
 20
-53
 30
0
 11
8
 21
-53
 31
0
  0
LINE
  5
A33
330
A02
100
AcDbEntity
  8
Sketch038
100
AcDbLine
 10
-2.06501e-14
 20
-48
 30
0
 11
8
 21
-48
 31
0
  0
ENDSEC
  0
SECTION
  2
OBJECTS
  0
DICTIONARY
  5
F000
330
0
100
AcDbDictionary
  3
ACAD_GROUP
350
F001
  0
DICTIONARY
  5
F001
330
F000
100
AcDbDictionary
  0
ENDSEC
  0
EOF