999
FreeCAD v2023.1102 14555 (Git shallow)
  0
SECTION
  2
HEADER
  9
$ACADVER
  1
AC1014
  9
$ACADMAINTVER
 70
     9
  9
$DWGCODEPAGE
  3
ANSI_1252
  9
$TEXTSTYLE
  7
STANDARD
  9
$DIMSTYLE
  2
STANDARD
  9
$DIMTXSTY
  7
STANDARD
  9
$CMLSTYLE
  2
STANDARD
  9
$LUNITS
 70
2
  9
$INSUNITS
 70
4
  9
$PEXTMAX
 10
50
 20
50
 30
50
  9
$PEXTMIN
 10
0
 20
0
 30
0
  9
$HANDSEED
  5
FFFF
  0
ENDSEC
  0
SECTION
  2
CLASSES
  0
CLASS
  1
ACDBDICTIONARYWDFLT
  2
AcDbDictionaryWithDefault
  3
ObjectDBX Classes
 90
        0
280
     0
281
     0
  0
CLASS
  1
XRECORD
  2
AcDbXrecord
  3
ObjectDBX Classes
 90
        0
280
     0
281
     0
  0
CLASS
  1
LWPOLYLINE
  2
AcDbPolyline
  3
ObjectDBX Classes
 90
        0
280
     0
281
     1
  0
ENDSEC
  0
SECTION
  2
TABLES
  0
TABLE
  2
VPORT
  5
20
330
0
100
AcDbSymbolTable
 70
     1
  0
VPORT
  5
21
330
20
100
AcDbSymbolTableRecord
100
AcDbViewportTableRecord
  2
*ACTIVE
 70
     0
  0
ENDTAB
  0
TABLE
  2
LTYPE
  5
22
330
0
100
AcDbSymbolTable
 70
     1
  0
LTYPE
  5
23
330
21
100
AcDbSymbolTableRecord
100
AcDbLinetypeTableRecord
  2
BYBLOCK
 70
     0
  3

 72
    65
 73
     0
 40
0.0
  0
LTYPE
  5
24
330
21
100
AcDbSymbolTableRecord
100
AcDbLinetypeTableRecord
  2
BYLAYER
 70
     0
  3

 72
    65
 73
     0
 40
0.0
  0
LTYPE
  5
25
330
21
100
AcDbSymbolTableRecord
100
AcDbLinetypeTableRecord
  2
CONTINUOUS
 70
     0
  3
Solid line
 72
    65
 73
     0
 40
0.0
  0
ENDTAB
  0
TABLE
  2
LAYER
  5
A22
330
0
100
AcDbSymbolTable
 70
3
  0
LAYER
  5
A23
330
A22
100
AcDbSymbolTableRecord
100
AcDbLayerTableRecord
  2
0
 70
   0
 62
   7
  6
CONTINUOUS
  0
LAYER
  5
A24
330
A22
100
AcDbSymbolTableRecord
100
AcDbLayerTableRecord
  2
none
 70
    0
 62
    7
  6
CONTINUOUS
  0
LAYER
  5
A25
330
A22
100
AcDbSymbolTableRecord
100
AcDbLayerTableRecord
  2
Sketch032
 70
    0
 62
    7
  6
CONTINUOUS
  0
ENDTAB
  0
TABLE
  2
STYLE
  5
70
330
0
100
AcDbSymbolTable
 70
     2
  0
STYLE
  5
71
330
70
100
AcDbSymbolTableRecord
100
AcDbTextStyleTableRecord
  2
STANDARD
 70
     0
 40
0.0
 41
1.0
 50
0.0
 71
     0
 42
2.5
  3
arial.ttf
  4

  0
STYLE
  5
72
330
70
100
AcDbSymbolTableRecord
100
AcDbTextStyleTableRecord
  2
ANNOTATIVE
 70
     0
 40
0.0
 41
1.0
 50
0.0
 71
     0
 42
2.5
  3
arial.ttf
  4

  0
ENDTAB
  0
TABLE
  2
VIEW
  5
73
330
0
100
AcDbSymbolTable
 70
     0
  0
ENDTAB
  0
TABLE
  2
UCS
  5
74
330
0
100
AcDbSymbolTable
 70
     0
  0
ENDTAB
  0
TABLE
  2
APPID
  5
75
330
0
100
AcDbSymbolTable
 70
     2
  0
APPID
  5
76
330
75
100
AcDbSymbolTableRecord
100
AcDbRegAppTableRecord
  2
ACAD
 70
     0
  0
APPID
  5
77
330
75
100
AcDbSymbolTableRecord
100
AcDbRegAppTableRecord
  2
ACADANNOTATIVE
 70
     0
  0
ENDTAB
  0
TABLE
  2
DIMSTYLE
  5
78
330
0
100
AcDbSymbolTable
 70
     2
  0
DIMSTYLE
105
79
330
78
100
AcDbSymbolTableRecord
100
AcDbDimStyleTableRecord
  2
STANDARD
 70
     0
  3

  4

  5

  6

  7

 40
0.0
 41
2.5
 42
0.625
 43
3.75
 44
1.25
 45
0.0
 46
0.0
 47
0.0
 48
0.0
140
2.5
141
2.5
142
0.0
143
0.03937007874016
144
1.0
145
0.0
146
1.0
147
0.625
 71
     0
 72
     0
 73
     0
 74
     0
 75
     0
 76
     0
 77
     1
 78
     8
170
     0
171
     3
172
     1
173
     0
174
     0
175
     0
176
     0
177
     0
178
     0
270
     2
271
     2
272
     2
273
     2
274
     3
340
71
275
     0
280
     0
281
     0
282
     0
283
     0
284
     8
285
     0
286
     0
287
     3
288
     0
  0
ENDTAB
  0
TABLE
  2
BLOCK_RECORD
  5
A01
330
0
100
AcDbSymbolTable
  70
5
  0
BLOCK_RECORD
  5
A02
330
A01
100
AcDbSymbolTableRecord
100
AcDbBlockTableRecord
  2
*MODEL_SPACE
  0
BLOCK_RECORD
  5
A03
330
A01
100
AcDbSymbolTableRecord
100
AcDbBlockTableRecord
  2
*PAPER_SPACE
  0
ENDTAB
  0
ENDSEC
  0
SECTION
  2
BLOCKS
  0
BLOCK
  5
A04
330
A02
100
AcDbEntity
  8
0
100
AcDbBlockBegin
  2
*MODEL_SPACE
 70
   0
 10
0
 20
0
 30
0
  3
*MODEL_SPACE
  1
 
  0
ENDBLK
  5
A05
330
A02
100
AcDbEntity
  8
0
100
AcDbBlockEnd
  0
BLOCK
  5
A06
330
A03
100
AcDbEntity
 67
1
  8
0
100
AcDbBlockBegin
  2
*PAPER_SPACE
 70
   0
 10
0
 20
0
 30
0
  3
*PAPER_SPACE
  1
 
  0
ENDBLK
  5
A07
330
A03
100
AcDbEntity
 67
    1
  8
0
100
AcDbBlockEnd
  0
ENDSEC
  0
SECTION
  2
ENTITIES
  0
SPLINE
  5
A08
330
A02
100
AcDbEntity
  8
Sketch032
100
AcDbSpline
210
0
220
0
230
1
 70
8
 71
2
 72
30
 73
27
 74
0
 40
1.5708
 40
1.5708
 40
1.5708
 40
1.683
 40
1.683
 40
1.7952
 40
1.7952
 40
1.9074
 40
1.9074
 40
2.0196
 40
2.0196
 40
2.1318
 40
2.1318
 40
2.24399
 40
2.24399
 40
2.35619
 40
2.35619
 40
2.46839
 40
2.46839
 40
2.58059
 40
2.58059
 40
2.69279
 40
2.69279
 40
2.80499
 40
2.80499
 40
2.91719
 40
2.91719
 40
3.14159
 40
3.14159
 40
3.14159
 10
-77
 20
-2.70894e-14
 30
0
 10
-76.9843
 20
-2.71481e-14
 30
0
 10
-76.9686
 20
-2.72068e-14
 30
0
 10
-76.9216
 20
-2.72577e-14
 30
0
 10
-76.8746
 20
-2.73087e-14
 30
0
 10
-76.797
 20
-2.73512e-14
 30
0
 10
-76.7194
 20
-2.73938e-14
 30
0
 10
-76.6121
 20
-2.74275e-14
 30
0
 10
-76.5048
 20
-2.74612e-14
 30
0
 10
-76.3692
 20
-2.74856e-14
 30
0
 10
-76.2336
 20
-2.75099e-14
 30
0
 10
-76.0714
 20
-2.75247e-14
 30
0
 10
-75.9092
 20
-2.75394e-14
 30
0
 10
-75.7223
 20
-2.75444e-14
 30
0
 10
-75.5355
 20
-2.75493e-14
 30
0
 10
-75.3265
 20
-2.75444e-14
 30
0
 10
-75.1174
 20
-2.75394e-14
 30
0
 10
-74.8888
 20
-2.75247e-14
 30
0
 10
-74.6602
 20
-2.75099e-14
 30
0
 10
-74.4148
 20
-2.74856e-14
 30
0
 10
-74.1694
 20
-2.74612e-14
 30
0
 10
-73.9104
 20
-2.74275e-14
 30
0
 10
-73.6514
 20
-2.73938e-14
 30
0
 10
-73.382
 20
-2.73512e-14
 30
0
 10
-73.1126
 20
-2.73087e-14
 30
0
 10
-72.5618
 20
-2.72111e-14
 30
0
 10
-72
 20
-2.70894e-14
 30
0
  0
LINE
  5
A09
330
A02
100
AcDbEntity
  8
Sketch032
100
AcDbLine
 10
-72
 20
-2.70894e-14
 30
0
 11
-72
 21
8
 31
0
  0
LINE
  5
A0A
330
A02
100
AcDbEntity
  8
Sketch032
100
AcDbLine
 10
-72
 20
-2.70894e-14
 30
0
 11
-29
 21
-1.75415e-14
 31
0
  0
LINE
  5
A0B
330
A02
100
AcDbEntity
  8
Sketch032
100
AcDbLine
 10
-29
 20
-1.75415e-14
 30
0
 11
-29
 21
8
 31
0
  0
SPLINE
  5
A0C
330
A02
100
AcDbEntity
  8
Sketch032
100
AcDbSpline
210
0
220
0
230
1
 70
8
 71
1
 72
17
 73
15
 74
0
 40
4.71239
 40
4.71239
 40
4.82459
 40
4.93679
 40
5.04899
 40
5.16119
 40
5.27339
 40
5.38559
 40
5.49779
 40
5.60999
 40
5.72219
 40
5.83439
 40
5.94659
 40
6.05879
 40
6.17099
 40
6.28319
 40
6.28319
 10
21
 20
-1.75415e-14
 30
0
 10
20.6856
 20
-1.63683e-14
 30
0
 10
19.7464
 20
-1.53494e-14
 30
0
 10
18.1942
 20
-1.44977e-14
 30
0
 10
16.0484
 20
-1.38239e-14
 30
0
 10
13.3362
 20
-1.33365e-14
 30
0
 10
10.0916
 20
-1.30416e-14
 30
0
 10
6.35534
 20
-1.29428e-14
 30
0
 10
2.17449
 20
-1.30416e-14
 30
0
 10
-2.3984
 20
-1.33365e-14
 30
0
 10
-7.30581
 20
-1.38239e-14
 30
0
 10
-12.486
 20
-1.44977e-14
 30
0
 10
-17.874
 20
-1.53494e-14
 30
0
 10
-23.4018
 20
-1.63683e-14
 30
0
 10
-29
 20
-1.75415e-14
 30
0
  0
LINE
  5
A0D
330
A02
100
AcDbEntity
  8
Sketch032
100
AcDbLine
 10
21
 20
-2.42029e-14
 30
0
 11
21
 21
8
 31
0
  0
SPLINE
  5
A0E
330
A02
100
AcDbEntity
  8
Sketch032
100
AcDbSpline
210
0
220
0
230
1
 70
8
 71
1
 72
17
 73
15
 74
0
 40
1.5708
 40
1.5708
 40
1.683
 40
1.7952
 40
1.9074
 40
2.0196
 40
2.1318
 40
2.24399
 40
2.35619
 40
2.46839
 40
2.58059
 40
2.69279
 40
2.80499
 40
2.91719
 40
3.02939
 40
3.14159
 40
3.14159
 10
21
 20
-2.42029e-14
 30
0
 10
21.0943
 20
-2.45548e-14
 30
0
 10
21.3761
 20
-2.48605e-14
 30
0
 10
21.8418
 20
-2.5116e-14
 30
0
 10
22.4855
 20
-2.53181e-14
 30
0
 10
23.2991
 20
-2.54644e-14
 30
0
 10
24.2725
 20
-2.55529e-14
 30
0
 10
25.3934
 20
-2.55825e-14
 30
0
 10
26.6477
 20
-2.55529e-14
 30
0
 10
28.0195
 20
-2.54644e-14
 30
0
 10
29.4917
 20
-2.53181e-14
 30
0
 10
31.0458
 20
-2.5116e-14
 30
0
 10
32.6622
 20
-2.48605e-14
 30
0
 10
34.3205
 20
-2.45548e-14
 30
0
 10
36
 20
-2.42029e-14
 30
0
  0
LINE
  5
A0F
330
A02
100
AcDbEntity
  8
Sketch032
100
AcDbLine
 10
36
 20
-2.42029e-14
 30
0
 11
36
 21
8
 31
0
  0
LINE
  5
A10
330
A02
100
AcDbEntity
  8
Sketch032
100
AcDbLine
 10
84
 20
-1.35447e-14
 30
0
 11
36
 21
-2.42029e-14
 31
0
  0
LINE
  5
A11
330
A02
100
AcDbEntity
  8
Sketch032
100
AcDbLine
 10
84
 20
-1.35447e-14
 30
0
 11
84
 21
8
 31
0
  0
SPLINE
  5
A12
330
A02
100
AcDbEntity
  8
Sketch032
100
AcDbSpline
210
0
220
0
230
1
 70
8
 71
1
 72
17
 73
15
 74
0
 40
3.14159
 40
3.14159
 40
3.25379
 40
3.36599
 40
3.47819
 40
3.59039
 40
3.70259
 40
3.81479
 40
3.92699
 40
4.03919
 40
4.15139
 40
4.26359
 40
4.37579
 40
4.48799
 40
4.60019
 40
4.71239
 40
4.71239
 10
84
 20
-1.35447e-14
 30
0
 10
84.5598
 20
-1.34134e-14
 30
0
 10
85.1126
 20
-1.32698e-14
 30
0
 10
85.6514
 20
-1.31157e-14
 30
0
 10
86.1694
 20
-1.29531e-14
 30
0
 10
86.6602
 20
-1.27839e-14
 30
0
 10
87.1174
 20
-1.26103e-14
 30
0
 10
87.5355
 20
-1.24345e-14
 30
0
 10
87.9092
 20
-1.22587e-14
 30
0
 10
88.2336
 20
-1.20851e-14
 30
0
 10
88.5048
 20
-1.19159e-14
 30
0
 10
88.7194
 20
-1.17533e-14
 30
0
 10
88.8746
 20
-1.15992e-14
 30
0
 10
88.9686
 20
-1.14556e-14
 30
0
 10
89
 20
-1.13243e-14
 30
0
  0
LINE
  5
A13
330
A02
100
AcDbEntity
  8
Sketch032
100
AcDbLine
 10
89
 20
-1.13243e-14
 30
0
 11
89
 21
8
 31
0
  0
SPLINE
  5
A14
330
A02
100
AcDbEntity
  8
Sketch032
100
AcDbSpline
210
0
220
0
230
1
 70
8
 71
1
 72
17
 73
15
 74
0
 40
3.14159
 40
3.14159
 40
3.25379
 40
3.36599
 40
3.47819
 40
3.59039
 40
3.70259
 40
3.81479
 40
3.92699
 40
4.03919
 40
4.15139
 40
4.26359
 40
4.37579
 40
4.48799
 40
4.60019
 40
4.71239
 40
4.71239
 10
84
 20
8
 30
0
 10
84.5598
 20
8
 30
0
 10
85.1126
 20
8
 30
0
 10
85.6514
 20
8
 30
0
 10
86.1694
 20
8
 30
0
 10
86.6602
 20
8
 30
0
 10
87.1174
 20
8
 30
0
 10
87.5355
 20
8
 30
0
 10
87.9092
 20
8
 30
0
 10
88.2336
 20
8
 30
0
 10
88.5048
 20
8
 30
0
 10
88.7194
 20
8
 30
0
 10
88.8746
 20
8
 30
0
 10
88.9686
 20
8
 30
0
 10
89
 20
8
 30
0
  0
LINE
  5
A15
330
A02
100
AcDbEntity
  8
Sketch032
100
AcDbLine
 10
84
 20
8
 30
0
 11
36
 21
8
 31
0
  0
SPLINE
  5
A16
330
A02
100
AcDbEntity
  8
Sketch032
100
AcDbSpline
210
0
220
0
230
1
 70
8
 71
1
 72
17
 73
15
 74
0
 40
1.5708
 40
1.5708
 40
1.683
 40
1.7952
 40
1.9074
 40
2.0196
 40
2.1318
 40
2.24399
 40
2.35619
 40
2.46839
 40
2.58059
 40
2.69279
 40
2.80499
 40
2.91719
 40
3.02939
 40
3.14159
 40
3.14159
 10
21
 20
8
 30
0
 10
21.0943
 20
8
 30
0
 10
21.3761
 20
8
 30
0
 10
21.8418
 20
8
 30
0
 10
22.4855
 20
8
 30
0
 10
23.2991
 20
8
 30
0
 10
24.2725
 20
8
 30
0
 10
25.3934
 20
8
 30
0
 10
26.6477
 20
8
 30
0
 10
28.0195
 20
8
 30
0
 10
29.4917
 20
8
 30
0
 10
31.0458
 20
8
 30
0
 10
32.6622
 20
8
 30
0
 10
34.3205
 20
8
 30
0
 10
36
 20
8
 30
0
  0
SPLINE
  5
A17
330
A02
100
AcDbEntity
  8
Sketch032
100
AcDbSpline
210
0
220
0
230
1
 70
8
 71
1
 72
17
 73
15
 74
0
 40
4.71239
 40
4.71239
 40
4.82459
 40
4.93679
 40
5.04899
 40
5.16119
 40
5.27339
 40
5.38559
 40
5.49779
 40
5.60999
 40
5.72219
 40
5.83439
 40
5.94659
 40
6.05879
 40
6.17099
 40
6.28319
 40
6.28319
 10
21
 20
8
 30
0
 10
20.6856
 20
8
 30
0
 10
19.7464
 20
8
 30
0
 10
18.1942
 20
8
 30
0
 10
16.0484
 20
8
 30
0
 10
13.3362
 20
8
 30
0
 10
10.0916
 20
8
 30
0
 10
6.35534
 20
8
 30
0
 10
2.17449
 20
8
 30
0
 10
-2.3984
 20
8
 30
0
 10
-7.30581
 20
8
 30
0
 10
-12.486
 20
8
 30
0
 10
-17.874
 20
8
 30
0
 10
-23.4018
 20
8
 30
0
 10
-29
 20
8
 30
0
  0
LINE
  5
A18
330
A02
100
AcDbEntity
  8
Sketch032
100
AcDbLine
 10
-72
 20
8
 30
0
 11
-29
 21
8
 31
0
  0
SPLINE
  5
A19
330
A02
100
AcDbEntity
  8
Sketch032
100
AcDbSpline
210
0
220
0
230
1
 70
8
 71
2
 72
30
 73
27
 74
0
 40
1.5708
 40
1.5708
 40
1.5708
 40
1.683
 40
1.683
 40
1.7952
 40
1.7952
 40
1.9074
 40
1.9074
 40
2.0196
 40
2.0196
 40
2.1318
 40
2.1318
 40
2.24399
 40
2.24399
 40
2.35619
 40
2.35619
 40
2.46839
 40
2.46839
 40
2.58059
 40
2.58059
 40
2.69279
 40
2.69279
 40
2.80499
 40
2.80499
 40
2.91719
 40
2.91719
 40
3.14159
 40
3.14159
 40
3.14159
 10
-77
 20
8
 30
0
 10
-76.9843
 20
8
 30
0
 10
-76.9686
 20
8
 30
0
 10
-76.9216
 20
8
 30
0
 10
-76.8746
 20
8
 30
0
 10
-76.797
 20
8
 30
0
 10
-76.7194
 20
8
 30
0
 10
-76.6121
 20
8
 30
0
 10
-76.5048
 20
8
 30
0
 10
-76.3692
 20
8
 30
0
 10
-76.2336
 20
8
 30
0
 10
-76.0714
 20
8
 30
0
 10
-75.9092
 20
8
 30
0
 10
-75.7223
 20
8
 30
0
 10
-75.5355
 20
8
 30
0
 10
-75.3265
 20
8
 30
0
 10
-75.1174
 20
8
 30
0
 10
-74.8888
 20
8
 30
0
 10
-74.6602
 20
8
 30
0
 10
-74.4148
 20
8
 30
0
 10
-74.1694
 20
8
 30
0
 10
-73.9104
 20
8
 30
0
 10
-73.6514
 20
8
 30
0
 10
-73.382
 20
8
 30
0
 10
-73.1126
 20
8
 30
0
 10
-72.5618
 20
8
 30
0
 10
-72
 20
8
 30
0
  0
LINE
  5
A1A
330
A02
100
AcDbEntity
  8
Sketch032
100
AcDbLine
 10
-77
 20
-2.70894e-14
 30
0
 11
-77
 21
8
 31
0
  0
LINE
  5
A1B
330
A02
100
AcDbEntity
  8
Sketch032
100
AcDbLine
 10
-49
 20
-1.26565e-14
 30
0
 11
-49
 21
-100
 31
0
  0
LINE
  5
A1C
330
A02
100
AcDbEntity
  8
Sketch032
100
AcDbLine
 10
-49
 20
-100
 30
0
 11
-34
 21
-100
 31
0
  0
LINE
  5
A1D
330
A02
100
AcDbEntity
  8
Sketch032
100
AcDbLine
 10
-34
 20
-100
 30
0
 11
-34
 21
-108
 31
0
  0
LINE
  5
A1E
330
A02
100
AcDbEntity
  8
Sketch032
100
AcDbLine
 10
-34
 20
-108
 30
0
 11
-4
 21
-108
 31
0
  0
LINE
  5
A1F
330
A02
100
AcDbEntity
  8
Sketch032
100
AcDbLine
 10
-4
 20
-108
 30
0
 11
-4
 21
-100
 31
0
  0
LINE
  5
A20
330
A02
100
AcDbEntity
  8
Sketch032
100
AcDbLine
 10
-4
 20
-100
 30
0
 11
11
 21
-100
 31
0
  0
LINE
  5
A21
330
A02
100
AcDbEntity
  8
Sketch032
100
AcDbLine
 10
11
 20
-100
 30
0
 11
11
 21
0
 31
0
  0
ENDSEC
  0
SECTION
  2
OBJECTS
  0
DICTIONARY
  5
F000
330
0
100
AcDbDictionary
  3
ACAD_GROUP
350
F001
  0
DICTIONARY
  5
F001
330
F000
100
AcDbDictionary
  0
ENDSEC
  0
EOF