999
FreeCAD v2023.1102 14555 (Git shallow)
  0
SECTION
  2
HEADER
  9
$ACADVER
  1
AC1014
  9
$ACADMAINTVER
 70
     9
  9
$DWGCODEPAGE
  3
ANSI_1252
  9
$TEXTSTYLE
  7
STANDARD
  9
$DIMSTYLE
  2
STANDARD
  9
$DIMTXSTY
  7
STANDARD
  9
$CMLSTYLE
  2
STANDARD
  9
$LUNITS
 70
2
  9
$INSUNITS
 70
4
  9
$PEXTMAX
 10
50
 20
50
 30
50
  9
$PEXTMIN
 10
0
 20
0
 30
0
  9
$HANDSEED
  5
FFFF
  0
ENDSEC
  0
SECTION
  2
CLASSES
  0
CLASS
  1
ACDBDICTIONARYWDFLT
  2
AcDbDictionaryWithDefault
  3
ObjectDBX Classes
 90
        0
280
     0
281
     0
  0
CLASS
  1
XRECORD
  2
AcDbXrecord
  3
ObjectDBX Classes
 90
        0
280
     0
281
     0
  0
CLASS
  1
LWPOLYLINE
  2
AcDbPolyline
  3
ObjectDBX Classes
 90
        0
280
     0
281
     1
  0
ENDSEC
  0
SECTION
  2
TABLES
  0
TABLE
  2
VPORT
  5
20
330
0
100
AcDbSymbolTable
 70
     1
  0
VPORT
  5
21
330
20
100
AcDbSymbolTableRecord
100
AcDbViewportTableRecord
  2
*ACTIVE
 70
     0
  0
ENDTAB
  0
TABLE
  2
LTYPE
  5
22
330
0
100
AcDbSymbolTable
 70
     1
  0
LTYPE
  5
23
330
21
100
AcDbSymbolTableRecord
100
AcDbLinetypeTableRecord
  2
BYBLOCK
 70
     0
  3

 72
    65
 73
     0
 40
0.0
  0
LTYPE
  5
24
330
21
100
AcDbSymbolTableRecord
100
AcDbLinetypeTableRecord
  2
BYLAYER
 70
     0
  3

 72
    65
 73
     0
 40
0.0
  0
LTYPE
  5
25
330
21
100
AcDbSymbolTableRecord
100
AcDbLinetypeTableRecord
  2
CONTINUOUS
 70
     0
  3
Solid line
 72
    65
 73
     0
 40
0.0
  0
ENDTAB
  0
TABLE
  2
LAYER
  5
A3C
330
0
100
AcDbSymbolTable
 70
3
  0
LAYER
  5
A3D
330
A3C
100
AcDbSymbolTableRecord
100
AcDbLayerTableRecord
  2
0
 70
   0
 62
   7
  6
CONTINUOUS
  0
LAYER
  5
A3E
330
A3C
100
AcDbSymbolTableRecord
100
AcDbLayerTableRecord
  2
none
 70
    0
 62
    7
  6
CONTINUOUS
  0
LAYER
  5
A3F
330
A3C
100
AcDbSymbolTableRecord
100
AcDbLayerTableRecord
  2
Sketch022
 70
    0
 62
    7
  6
CONTINUOUS
  0
ENDTAB
  0
TABLE
  2
STYLE
  5
70
330
0
100
AcDbSymbolTable
 70
     2
  0
STYLE
  5
71
330
70
100
AcDbSymbolTableRecord
100
AcDbTextStyleTableRecord
  2
STANDARD
 70
     0
 40
0.0
 41
1.0
 50
0.0
 71
     0
 42
2.5
  3
arial.ttf
  4

  0
STYLE
  5
72
330
70
100
AcDbSymbolTableRecord
100
AcDbTextStyleTableRecord
  2
ANNOTATIVE
 70
     0
 40
0.0
 41
1.0
 50
0.0
 71
     0
 42
2.5
  3
arial.ttf
  4

  0
ENDTAB
  0
TABLE
  2
VIEW
  5
73
330
0
100
AcDbSymbolTable
 70
     0
  0
ENDTAB
  0
TABLE
  2
UCS
  5
74
330
0
100
AcDbSymbolTable
 70
     0
  0
ENDTAB
  0
TABLE
  2
APPID
  5
75
330
0
100
AcDbSymbolTable
 70
     2
  0
APPID
  5
76
330
75
100
AcDbSymbolTableRecord
100
AcDbRegAppTableRecord
  2
ACAD
 70
     0
  0
APPID
  5
77
330
75
100
AcDbSymbolTableRecord
100
AcDbRegAppTableRecord
  2
ACADANNOTATIVE
 70
     0
  0
ENDTAB
  0
TABLE
  2
DIMSTYLE
  5
78
330
0
100
AcDbSymbolTable
 70
     2
  0
DIMSTYLE
105
79
330
78
100
AcDbSymbolTableRecord
100
AcDbDimStyleTableRecord
  2
STANDARD
 70
     0
  3

  4

  5

  6

  7

 40
0.0
 41
2.5
 42
0.625
 43
3.75
 44
1.25
 45
0.0
 46
0.0
 47
0.0
 48
0.0
140
2.5
141
2.5
142
0.0
143
0.03937007874016
144
1.0
145
0.0
146
1.0
147
0.625
 71
     0
 72
     0
 73
     0
 74
     0
 75
     0
 76
     0
 77
     1
 78
     8
170
     0
171
     3
172
     1
173
     0
174
     0
175
     0
176
     0
177
     0
178
     0
270
     2
271
     2
272
     2
273
     2
274
     3
340
71
275
     0
280
     0
281
     0
282
     0
283
     0
284
     8
285
     0
286
     0
287
     3
288
     0
  0
ENDTAB
  0
TABLE
  2
BLOCK_RECORD
  5
A01
330
0
100
AcDbSymbolTable
  70
5
  0
BLOCK_RECORD
  5
A02
330
A01
100
AcDbSymbolTableRecord
100
AcDbBlockTableRecord
  2
*MODEL_SPACE
  0
BLOCK_RECORD
  5
A03
330
A01
100
AcDbSymbolTableRecord
100
AcDbBlockTableRecord
  2
*PAPER_SPACE
  0
ENDTAB
  0
ENDSEC
  0
SECTION
  2
BLOCKS
  0
BLOCK
  5
A04
330
A02
100
AcDbEntity
  8
0
100
AcDbBlockBegin
  2
*MODEL_SPACE
 70
   0
 10
0
 20
0
 30
0
  3
*MODEL_SPACE
  1
 
  0
ENDBLK
  5
A05
330
A02
100
AcDbEntity
  8
0
100
AcDbBlockEnd
  0
BLOCK
  5
A06
330
A03
100
AcDbEntity
 67
1
  8
0
100
AcDbBlockBegin
  2
*PAPER_SPACE
 70
   0
 10
0
 20
0
 30
0
  3
*PAPER_SPACE
  1
 
  0
ENDBLK
  5
A07
330
A03
100
AcDbEntity
 67
    1
  8
0
100
AcDbBlockEnd
  0
ENDSEC
  0
SECTION
  2
ENTITIES
  0
LINE
  5
A08
330
A02
100
AcDbEntity
  8
Sketch022
100
AcDbLine
 10
-71.8539
 20
220
 30
0
 11
-71.8539
 21
230
 31
0
  0
LINE
  5
A09
330
A02
100
AcDbEntity
  8
Sketch022
100
AcDbLine
 10
-71.8539
 20
230
 30
0
 11
-81.8539
 21
230
 31
0
  0
LINE
  5
A0A
330
A02
100
AcDbEntity
  8
Sketch022
100
AcDbLine
 10
-81.8539
 20
230
 30
0
 11
-81.2649
 21
210.649
 31
0
  0
LINE
  5
A0B
330
A02
100
AcDbEntity
  8
Sketch022
100
AcDbLine
 10
-76.177
 20
207.914
 30
0
 11
-81.2649
 21
210.649
 31
0
  0
LINE
  5
A0C
330
A02
100
AcDbEntity
  8
Sketch022
100
AcDbLine
 10
-76.0013
 20
202.141
 30
0
 11
-76.177
 21
207.914
 31
0
  0
LINE
  5
A0D
330
A02
100
AcDbEntity
  8
Sketch022
100
AcDbLine
 10
-80.9135
 20
199.102
 30
0
 11
-76.0013
 21
202.141
 31
0
  0
LINE
  5
A0E
330
A02
100
AcDbEntity
  8
Sketch022
100
AcDbLine
 10
-80.9135
 20
199.102
 30
0
 11
-80.3666
 21
181.132
 31
0
  0
LINE
  5
A0F
330
A02
100
AcDbEntity
  8
Sketch022
100
AcDbLine
 10
-76.2963
 20
178.945
 30
0
 11
-80.3666
 21
181.132
 31
0
  0
LINE
  5
A10
330
A02
100
AcDbEntity
  8
Sketch022
100
AcDbLine
 10
-76.1557
 20
174.326
 30
0
 11
-76.2963
 21
178.945
 31
0
  0
LINE
  5
A11
330
A02
100
AcDbEntity
  8
Sketch022
100
AcDbLine
 10
-80.0854
 20
171.895
 30
0
 11
-76.1557
 21
174.326
 31
0
  0
LINE
  5
A12
330
A02
100
AcDbEntity
  8
Sketch022
100
AcDbLine
 10
-80.0854
 20
171.895
 30
0
 11
-79.5385
 21
153.925
 31
0
  0
LINE
  5
A13
330
A02
100
AcDbEntity
  8
Sketch022
100
AcDbLine
 10
-76.4858
 20
152.284
 30
0
 11
-79.5385
 21
153.925
 31
0
  0
LINE
  5
A14
330
A02
100
AcDbEntity
  8
Sketch022
100
AcDbLine
 10
-76.3804
 20
148.82
 30
0
 11
-76.4858
 21
152.284
 31
0
  0
LINE
  5
A15
330
A02
100
AcDbEntity
  8
Sketch022
100
AcDbLine
 10
-79.3277
 20
146.997
 30
0
 11
-76.3804
 21
148.82
 31
0
  0
LINE
  5
A16
330
A02
100
AcDbEntity
  8
Sketch022
100
AcDbLine
 10
-79.3277
 20
146.997
 30
0
 11
-78.7803
 21
129.012
 31
0
  0
LINE
  5
A17
330
A02
100
AcDbEntity
  8
Sketch022
100
AcDbLine
 10
-76.2364
 20
127.645
 30
0
 11
-78.7803
 21
129.012
 31
0
  0
LINE
  5
A18
330
A02
100
AcDbEntity
  8
Sketch022
100
AcDbLine
 10
-76.1485
 20
124.758
 30
0
 11
-76.2364
 21
127.645
 31
0
  0
LINE
  5
A19
330
A02
100
AcDbEntity
  8
Sketch022
100
AcDbLine
 10
-78.6046
 20
123.239
 30
0
 11
-76.1485
 21
124.758
 31
0
  0
LINE
  5
A1A
330
A02
100
AcDbEntity
  8
Sketch022
100
AcDbLine
 10
-78.6046
 20
123.239
 30
0
 11
-78.0572
 21
105.254
 31
0
  0
LINE
  5
A1B
330
A02
100
AcDbEntity
  8
Sketch022
100
AcDbLine
 10
-76.0221
 20
104.16
 30
0
 11
-78.0572
 21
105.254
 31
0
  0
LINE
  5
A1C
330
A02
100
AcDbEntity
  8
Sketch022
100
AcDbLine
 10
-75.9518
 20
101.851
 30
0
 11
-76.0221
 21
104.16
 31
0
  0
LINE
  5
A1D
330
A02
100
AcDbEntity
  8
Sketch022
100
AcDbLine
 10
-77.9167
 20
100.635
 30
0
 11
-75.9518
 21
101.851
 31
0
  0
LINE
  5
A1E
330
A02
100
AcDbEntity
  8
Sketch022
100
AcDbLine
 10
-77.9167
 20
100.635
 30
0
 11
-77.3693
 21
82.6503
 31
0
  0
LINE
  5
A1F
330
A02
100
AcDbEntity
  8
Sketch022
100
AcDbLine
 10
-75.8429
 20
81.83
 30
0
 11
-77.3693
 21
82.6503
 31
0
  0
LINE
  5
A20
330
A02
100
AcDbEntity
  8
Sketch022
100
AcDbLine
 10
-75.7902
 20
80.0979
 30
0
 11
-75.8429
 21
81.83
 31
0
  0
LINE
  5
A21
330
A02
100
AcDbEntity
  8
Sketch022
100
AcDbLine
 10
-77.2639
 20
79.1862
 30
0
 11
-75.7902
 21
80.0979
 31
0
  0
LINE
  5
A22
330
A02
100
AcDbEntity
  8
Sketch022
100
AcDbLine
 10
-77.2639
 20
79.1862
 30
0
 11
-76.7163
 21
61.1939
 31
0
  0
LINE
  5
A23
330
A02
100
AcDbEntity
  8
Sketch022
100
AcDbLine
 10
-75.4443
 20
60.5102
 30
0
 11
-76.7163
 21
61.1939
 31
0
  0
LINE
  5
A24
330
A02
100
AcDbEntity
  8
Sketch022
100
AcDbLine
 10
-75.4004
 20
59.0668
 30
0
 11
-75.4443
 21
60.5102
 31
0
  0
LINE
  5
A25
330
A02
100
AcDbEntity
  8
Sketch022
100
AcDbLine
 10
-76.6284
 20
58.3071
 30
0
 11
-75.4004
 21
59.0668
 31
0
  0
LINE
  5
A26
330
A02
100
AcDbEntity
  8
Sketch022
100
AcDbLine
 10
-76.6284
 20
58.3071
 30
0
 11
-76.1021
 21
41.015
 31
0
  0
LINE
  5
A27
330
A02
100
AcDbEntity
  8
Sketch022
100
AcDbLine
 10
-74.8559
 20
40.3451
 30
0
 11
-76.1021
 21
41.015
 31
0
  0
LINE
  5
A28
330
A02
100
AcDbEntity
  8
Sketch022
100
AcDbLine
 10
-74.8128
 20
38.9309
 30
0
 11
-74.8559
 21
40.3451
 31
0
  0
LINE
  5
A29
330
A02
100
AcDbEntity
  8
Sketch022
100
AcDbLine
 10
-76.016
 20
38.1866
 30
0
 11
-74.8128
 21
38.9309
 31
0
  0
LINE
  5
A2A
330
A02
100
AcDbEntity
  8
Sketch022
100
AcDbLine
 10
-76.016
 20
38.1866
 30
0
 11
-75.4902
 21
20.9081
 31
0
  0
LINE
  5
A2B
330
A02
100
AcDbEntity
  8
Sketch022
100
AcDbLine
 10
-74.727
 20
20.4979
 30
0
 11
-75.4902
 21
20.9081
 31
0
  0
LINE
  5
A2C
330
A02
100
AcDbEntity
  8
Sketch022
100
AcDbLine
 10
-74.7006
 20
19.6319
 30
0
 11
-74.727
 21
20.4979
 31
0
  0
LINE
  5
A2D
330
A02
100
AcDbEntity
  8
Sketch022
100
AcDbLine
 10
-75.4375
 20
19.1761
 30
0
 11
-74.7006
 21
19.6319
 31
0
  0
LINE
  5
A2E
330
A02
100
AcDbEntity
  8
Sketch022
100
AcDbLine
 10
-75.4375
 20
19.1761
 30
0
 11
-74.8539
 21
0
 31
0
  0
LINE
  5
A2F
330
A02
100
AcDbEntity
  8
Sketch022
100
AcDbLine
 10
-74.8539
 20
3.24657e-31
 30
0
 11
-71.8539
 21
3.24657e-31
 31
0
  0
LINE
  5
A30
330
A02
100
AcDbEntity
  8
Sketch022
100
AcDbLine
 10
-71.8539
 20
3.24657e-31
 30
0
 11
-71.8539
 21
10
 31
0
  0
LINE
  5
A31
330
A02
100
AcDbEntity
  8
Sketch022
100
AcDbLine
 10
-71.8539
 20
10
 30
0
 11
-63.8539
 21
10
 31
0
  0
LINE
  5
A32
330
A02
100
AcDbEntity
  8
Sketch022
100
AcDbLine
 10
-63.8539
 20
40
 30
0
 11
-63.8539
 21
10
 31
0
  0
LINE
  5
A33
330
A02
100
AcDbEntity
  8
Sketch022
100
AcDbLine
 10
-71.8539
 20
40
 30
0
 11
-63.8539
 21
40
 31
0
  0
LINE
  5
A34
330
A02
100
AcDbEntity
  8
Sketch022
100
AcDbLine
 10
-71.8539
 20
100
 30
0
 11
-71.8539
 21
40
 31
0
  0
LINE
  5
A35
330
A02
100
AcDbEntity
  8
Sketch022
100
AcDbLine
 10
-71.8539
 20
100
 30
0
 11
-63.8539
 21
100
 31
0
  0
LINE
  5
A36
330
A02
100
AcDbEntity
  8
Sketch022
100
AcDbLine
 10
-63.8539
 20
130
 30
0
 11
-63.8539
 21
100
 31
0
  0
LINE
  5
A37
330
A02
100
AcDbEntity
  8
Sketch022
100
AcDbLine
 10
-71.8539
 20
130
 30
0
 11
-63.8539
 21
130
 31
0
  0
LINE
  5
A38
330
A02
100
AcDbEntity
  8
Sketch022
100
AcDbLine
 10
-71.8539
 20
190
 30
0
 11
-71.8539
 21
130
 31
0
  0
LINE
  5
A39
330
A02
100
AcDbEntity
  8
Sketch022
100
AcDbLine
 10
-71.8539
 20
190
 30
0
 11
-63.8539
 21
190
 31
0
  0
LINE
  5
A3A
330
A02
100
AcDbEntity
  8
Sketch022
100
AcDbLine
 10
-63.8539
 20
220
 30
0
 11
-63.8539
 21
190
 31
0
  0
LINE
  5
A3B
330
A02
100
AcDbEntity
  8
Sketch022
100
AcDbLine
 10
-71.8539
 20
220
 30
0
 11
-63.8539
 21
220
 31
0
  0
ENDSEC
  0
SECTION
  2
OBJECTS
  0
DICTIONARY
  5
F000
330
0
100
AcDbDictionary
  3
ACAD_GROUP
350
F001
  0
DICTIONARY
  5
F001
330
F000
100
AcDbDictionary
  0
ENDSEC
  0
EOF