999
FreeCAD v2024.123 14555 (Git shallow)
  0
SECTION
  2
HEADER
  9
$ACADVER
  1
AC1014
  9
$ACADMAINTVER
 70
     9
  9
$DWGCODEPAGE
  3
ANSI_1252
  9
$TEXTSTYLE
  7
STANDARD
  9
$DIMSTYLE
  2
STANDARD
  9
$DIMTXSTY
  7
STANDARD
  9
$CMLSTYLE
  2
STANDARD
  9
$LUNITS
 70
2
  9
$INSUNITS
 70
4
  9
$PEXTMAX
 10
50
 20
50
 30
50
  9
$PEXTMIN
 10
0
 20
0
 30
0
  9
$HANDSEED
  5
FFFF
  0
ENDSEC
  0
SECTION
  2
CLASSES
  0
CLASS
  1
ACDBDICTIONARYWDFLT
  2
AcDbDictionaryWithDefault
  3
ObjectDBX Classes
 90
        0
280
     0
281
     0
  0
CLASS
  1
XRECORD
  2
AcDbXrecord
  3
ObjectDBX Classes
 90
        0
280
     0
281
     0
  0
CLASS
  1
LWPOLYLINE
  2
AcDbPolyline
  3
ObjectDBX Classes
 90
        0
280
     0
281
     1
  0
ENDSEC
  0
SECTION
  2
TABLES
  0
TABLE
  2
VPORT
  5
20
330
0
100
AcDbSymbolTable
 70
     1
  0
VPORT
  5
21
330
20
100
AcDbSymbolTableRecord
100
AcDbViewportTableRecord
  2
*ACTIVE
 70
     0
  0
ENDTAB
  0
TABLE
  2
LTYPE
  5
22
330
0
100
AcDbSymbolTable
 70
     1
  0
LTYPE
  5
23
330
21
100
AcDbSymbolTableRecord
100
AcDbLinetypeTableRecord
  2
BYBLOCK
 70
     0
  3

 72
    65
 73
     0
 40
0.0
  0
LTYPE
  5
24
330
21
100
AcDbSymbolTableRecord
100
AcDbLinetypeTableRecord
  2
BYLAYER
 70
     0
  3

 72
    65
 73
     0
 40
0.0
  0
LTYPE
  5
25
330
21
100
AcDbSymbolTableRecord
100
AcDbLinetypeTableRecord
  2
CONTINUOUS
 70
     0
  3
Solid line
 72
    65
 73
     0
 40
0.0
  0
ENDTAB
  0
TABLE
  2
LAYER
  5
A7A
330
0
100
AcDbSymbolTable
 70
3
  0
LAYER
  5
A7B
330
A7A
100
AcDbSymbolTableRecord
100
AcDbLayerTableRecord
  2
0
 70
   0
 62
   7
  6
CONTINUOUS
  0
LAYER
  5
A7C
330
A7A
100
AcDbSymbolTableRecord
100
AcDbLayerTableRecord
  2
none
 70
    0
 62
    7
  6
CONTINUOUS
  0
LAYER
  5
A7D
330
A7A
100
AcDbSymbolTableRecord
100
AcDbLayerTableRecord
  2
Sketch052
 70
    0
 62
    7
  6
CONTINUOUS
  0
ENDTAB
  0
TABLE
  2
STYLE
  5
70
330
0
100
AcDbSymbolTable
 70
     2
  0
STYLE
  5
71
330
70
100
AcDbSymbolTableRecord
100
AcDbTextStyleTableRecord
  2
STANDARD
 70
     0
 40
0.0
 41
1.0
 50
0.0
 71
     0
 42
2.5
  3
arial.ttf
  4

  0
STYLE
  5
72
330
70
100
AcDbSymbolTableRecord
100
AcDbTextStyleTableRecord
  2
ANNOTATIVE
 70
     0
 40
0.0
 41
1.0
 50
0.0
 71
     0
 42
2.5
  3
arial.ttf
  4

  0
ENDTAB
  0
TABLE
  2
VIEW
  5
73
330
0
100
AcDbSymbolTable
 70
     0
  0
ENDTAB
  0
TABLE
  2
UCS
  5
74
330
0
100
AcDbSymbolTable
 70
     0
  0
ENDTAB
  0
TABLE
  2
APPID
  5
75
330
0
100
AcDbSymbolTable
 70
     2
  0
APPID
  5
76
330
75
100
AcDbSymbolTableRecord
100
AcDbRegAppTableRecord
  2
ACAD
 70
     0
  0
APPID
  5
77
330
75
100
AcDbSymbolTableRecord
100
AcDbRegAppTableRecord
  2
ACADANNOTATIVE
 70
     0
  0
ENDTAB
  0
TABLE
  2
DIMSTYLE
  5
78
330
0
100
AcDbSymbolTable
 70
     2
  0
DIMSTYLE
105
79
330
78
100
AcDbSymbolTableRecord
100
AcDbDimStyleTableRecord
  2
STANDARD
 70
     0
  3

  4

  5

  6

  7

 40
0.0
 41
2.5
 42
0.625
 43
3.75
 44
1.25
 45
0.0
 46
0.0
 47
0.0
 48
0.0
140
2.5
141
2.5
142
0.0
143
0.03937007874016
144
1.0
145
0.0
146
1.0
147
0.625
 71
     0
 72
     0
 73
     0
 74
     0
 75
     0
 76
     0
 77
     1
 78
     8
170
     0
171
     3
172
     1
173
     0
174
     0
175
     0
176
     0
177
     0
178
     0
270
     2
271
     2
272
     2
273
     2
274
     3
340
71
275
     0
280
     0
281
     0
282
     0
283
     0
284
     8
285
     0
286
     0
287
     3
288
     0
  0
ENDTAB
  0
TABLE
  2
BLOCK_RECORD
  5
A01
330
0
100
AcDbSymbolTable
  70
5
  0
BLOCK_RECORD
  5
A02
330
A01
100
AcDbSymbolTableRecord
100
AcDbBlockTableRecord
  2
*MODEL_SPACE
  0
BLOCK_RECORD
  5
A03
330
A01
100
AcDbSymbolTableRecord
100
AcDbBlockTableRecord
  2
*PAPER_SPACE
  0
ENDTAB
  0
ENDSEC
  0
SECTION
  2
BLOCKS
  0
BLOCK
  5
A04
330
A02
100
AcDbEntity
  8
0
100
AcDbBlockBegin
  2
*MODEL_SPACE
 70
   0
 10
0
 20
0
 30
0
  3
*MODEL_SPACE
  1
 
  0
ENDBLK
  5
A05
330
A02
100
AcDbEntity
  8
0
100
AcDbBlockEnd
  0
BLOCK
  5
A06
330
A03
100
AcDbEntity
 67
1
  8
0
100
AcDbBlockBegin
  2
*PAPER_SPACE
 70
   0
 10
0
 20
0
 30
0
  3
*PAPER_SPACE
  1
 
  0
ENDBLK
  5
A07
330
A03
100
AcDbEntity
 67
    1
  8
0
100
AcDbBlockEnd
  0
ENDSEC
  0
SECTION
  2
ENTITIES
  0
LINE
  5
A08
330
A02
100
AcDbEntity
  8
Sketch052
100
AcDbLine
 10
61.25
 20
-63
 30
0
 11
75
 21
-63
 31
0
  0
LINE
  5
A09
330
A02
100
AcDbEntity
  8
Sketch052
100
AcDbLine
 10
75
 20
-63
 30
0
 11
75
 21
-50.5
 31
0
  0
LINE
  5
A0A
330
A02
100
AcDbEntity
  8
Sketch052
100
AcDbLine
 10
75
 20
-50.5
 30
0
 11
83
 21
-50.5
 31
0
  0
LINE
  5
A0B
330
A02
100
AcDbEntity
  8
Sketch052
100
AcDbLine
 10
83
 20
-35.5
 30
0
 11
83
 21
-50.5
 31
0
  0
LINE
  5
A0C
330
A02
100
AcDbEntity
  8
Sketch052
100
AcDbLine
 10
75
 20
-35.5
 30
0
 11
83
 21
-35.5
 31
0
  0
LINE
  5
A0D
330
A02
100
AcDbEntity
  8
Sketch052
100
AcDbLine
 10
75
 20
-35.5
 30
0
 11
75
 21
-23
 31
0
  0
LINE
  5
A0E
330
A02
100
AcDbEntity
  8
Sketch052
100
AcDbLine
 10
-111.667
 20
-23
 30
0
 11
75
 21
-23
 31
0
  0
LINE
  5
A0F
330
A02
100
AcDbEntity
  8
Sketch052
100
AcDbLine
 10
-111.667
 20
-15.5
 30
0
 11
-111.667
 21
-23
 31
0
  0
LINE
  5
A10
330
A02
100
AcDbEntity
  8
Sketch052
100
AcDbLine
 10
-298.333
 20
-15.5
 30
0
 11
-111.667
 21
-15.5
 31
0
  0
LINE
  5
A11
330
A02
100
AcDbEntity
  8
Sketch052
100
AcDbLine
 10
-298.333
 20
-23
 30
0
 11
-298.333
 21
-15.5
 31
0
  0
LINE
  5
A12
330
A02
100
AcDbEntity
  8
Sketch052
100
AcDbLine
 10
-485
 20
-23
 30
0
 11
-298.333
 21
-23
 31
0
  0
LINE
  5
A13
330
A02
100
AcDbEntity
  8
Sketch052
100
AcDbLine
 10
-485
 20
-23
 30
0
 11
-485
 21
-35.5
 31
0
  0
LINE
  5
A14
330
A02
100
AcDbEntity
  8
Sketch052
100
AcDbLine
 10
-485
 20
-35.5
 30
0
 11
-493
 21
-35.5
 31
0
  0
LINE
  5
A15
330
A02
100
AcDbEntity
  8
Sketch052
100
AcDbLine
 10
-493
 20
-35.5
 30
0
 11
-493
 21
-50.5
 31
0
  0
LINE
  5
A16
330
A02
100
AcDbEntity
  8
Sketch052
100
AcDbLine
 10
-493
 20
-50.5
 30
0
 11
-485
 21
-50.5
 31
0
  0
LINE
  5
A17
330
A02
100
AcDbEntity
  8
Sketch052
100
AcDbLine
 10
-485
 20
-50.5
 30
0
 11
-485
 21
-63
 31
0
  0
LINE
  5
A18
330
A02
100
AcDbEntity
  8
Sketch052
100
AcDbLine
 10
-485
 20
-63
 30
0
 11
-470
 21
-63
 31
0
  0
ARC
  5
A19
330
A02
100
AcDbEntity
  8
Sketch052
100
AcDbCircle
 10
-470
 20
-60
 30
0
 40
3
100
AcDbArc
 50
-90
 51
0
  0
LINE
  5
A1A
330
A02
100
AcDbEntity
  8
Sketch052
100
AcDbLine
 10
-467
 20
-52.798
 30
0
 11
-467
 21
-60
 31
0
  0
ARC
  5
A1B
330
A02
100
AcDbEntity
  8
Sketch052
100
AcDbCircle
 10
-465
 20
-43
 30
0
 40
10
100
AcDbArc
 50
0
 51
-101.537
  0
ARC
  5
A1C
330
A02
100
AcDbEntity
  8
Sketch052
100
AcDbCircle
 10
-465
 20
-43
 30
0
 40
10
100
AcDbArc
 50
-78.463
 51
0
  0
LINE
  5
A1D
330
A02
100
AcDbEntity
  8
Sketch052
100
AcDbLine
 10
-463
 20
-60
 30
0
 11
-463
 21
-52.798
 31
0
  0
ARC
  5
A1E
330
A02
100
AcDbEntity
  8
Sketch052
100
AcDbCircle
 10
-460
 20
-60
 30
0
 40
3
100
AcDbArc
 50
180
 51
-90
  0
LINE
  5
A1F
330
A02
100
AcDbEntity
  8
Sketch052
100
AcDbLine
 10
-460
 20
-63
 30
0
 11
-430.25
 21
-63
 31
0
  0
ARC
  5
A20
330
A02
100
AcDbEntity
  8
Sketch052
100
AcDbCircle
 10
-430.25
 20
-60
 30
0
 40
3
100
AcDbArc
 50
-90
 51
0
  0
LINE
  5
A21
330
A02
100
AcDbEntity
  8
Sketch052
100
AcDbLine
 10
-427.25
 20
-54.5326
 30
0
 11
-427.25
 21
-60
 31
0
  0
ARC
  5
A22
330
A02
100
AcDbEntity
  8
Sketch052
100
AcDbCircle
 10
-425
 20
-43
 30
0
 40
11.75
100
AcDbArc
 50
0
 51
-101.04
  0
ARC
  5
A23
330
A02
100
AcDbEntity
  8
Sketch052
100
AcDbCircle
 10
-425
 20
-43
 30
0
 40
11.75
100
AcDbArc
 50
-78.9603
 51
0
  0
LINE
  5
A24
330
A02
100
AcDbEntity
  8
Sketch052
100
AcDbLine
 10
-422.75
 20
-60
 30
0
 11
-422.75
 21
-54.5326
 31
0
  0
ARC
  5
A25
330
A02
100
AcDbEntity
  8
Sketch052
100
AcDbCircle
 10
-419.75
 20
-60
 30
0
 40
3
100
AcDbArc
 50
180
 51
-90
  0
LINE
  5
A26
330
A02
100
AcDbEntity
  8
Sketch052
100
AcDbLine
 10
-419.75
 20
-63
 30
0
 11
-391.25
 21
-63
 31
0
  0
ARC
  5
A27
330
A02
100
AcDbEntity
  8
Sketch052
100
AcDbCircle
 10
-391.25
 20
-60
 30
0
 40
3
100
AcDbArc
 50
-90
 51
0
  0
LINE
  5
A28
330
A02
100
AcDbEntity
  8
Sketch052
100
AcDbLine
 10
-388.25
 20
-56.3604
 30
0
 11
-388.25
 21
-60
 31
0
  0
ARC
  5
A29
330
A02
100
AcDbEntity
  8
Sketch052
100
AcDbCircle
 10
-385
 20
-43
 30
0
 40
13.75
100
AcDbArc
 50
0
 51
-103.672
  0
ARC
  5
A2A
330
A02
100
AcDbEntity
  8
Sketch052
100
AcDbCircle
 10
-385
 20
-43
 30
0
 40
13.75
100
AcDbArc
 50
-76.328
 51
0
  0
LINE
  5
A2B
330
A02
100
AcDbEntity
  8
Sketch052
100
AcDbLine
 10
-381.75
 20
-60
 30
0
 11
-381.75
 21
-56.3604
 31
0
  0
ARC
  5
A2C
330
A02
100
AcDbEntity
  8
Sketch052
100
AcDbCircle
 10
-378.75
 20
-60
 30
0
 40
3
100
AcDbArc
 50
180
 51
-90
  0
LINE
  5
A2D
330
A02
100
AcDbEntity
  8
Sketch052
100
AcDbLine
 10
-378.75
 20
-63
 30
0
 11
-350.5
 21
-63
 31
0
  0
ARC
  5
A2E
330
A02
100
AcDbEntity
  8
Sketch052
100
AcDbCircle
 10
-350.5
 20
-60
 30
0
 40
3
100
AcDbArc
 50
-90
 51
0
  0
LINE
  5
A2F
330
A02
100
AcDbEntity
  8
Sketch052
100
AcDbLine
 10
-347.5
 20
-54.481
 30
0
 11
-347.5
 21
-60
 31
0
  0
ARC
  5
A30
330
A02
100
AcDbEntity
  8
Sketch052
100
AcDbCircle
 10
-345
 20
-43
 30
0
 40
11.75
100
AcDbArc
 50
0
 51
-102.284
  0
ARC
  5
A31
330
A02
100
AcDbEntity
  8
Sketch052
100
AcDbCircle
 10
-345
 20
-43
 30
0
 40
11.75
100
AcDbArc
 50
-77.7155
 51
0
  0
LINE
  5
A32
330
A02
100
AcDbEntity
  8
Sketch052
100
AcDbLine
 10
-342.5
 20
-60
 30
0
 11
-342.5
 21
-54.481
 31
0
  0
ARC
  5
A33
330
A02
100
AcDbEntity
  8
Sketch052
100
AcDbCircle
 10
-339.5
 20
-60
 30
0
 40
3
100
AcDbArc
 50
180
 51
-90
  0
LINE
  5
A34
330
A02
100
AcDbEntity
  8
Sketch052
100
AcDbLine
 10
-339.5
 20
-63
 30
0
 11
-310.5
 21
-63
 31
0
  0
ARC
  5
A35
330
A02
100
AcDbEntity
  8
Sketch052
100
AcDbCircle
 10
-310.5
 20
-60
 30
0
 40
3
100
AcDbArc
 50
-90
 51
0
  0
LINE
  5
A36
330
A02
100
AcDbEntity
  8
Sketch052
100
AcDbLine
 10
-307.5
 20
-54.481
 30
0
 11
-307.5
 21
-60
 31
0
  0
ARC
  5
A37
330
A02
100
AcDbEntity
  8
Sketch052
100
AcDbCircle
 10
-305
 20
-43
 30
0
 40
11.75
100
AcDbArc
 50
0
 51
-102.284
  0
ARC
  5
A38
330
A02
100
AcDbEntity
  8
Sketch052
100
AcDbCircle
 10
-305
 20
-43
 30
0
 40
11.75
100
AcDbArc
 50
-77.7155
 51
0
  0
LINE
  5
A39
330
A02
100
AcDbEntity
  8
Sketch052
100
AcDbLine
 10
-302.5
 20
-60
 30
0
 11
-302.5
 21
-54.481
 31
0
  0
ARC
  5
A3A
330
A02
100
AcDbEntity
  8
Sketch052
100
AcDbCircle
 10
-299.5
 20
-60
 30
0
 40
3
100
AcDbArc
 50
180
 51
-90
  0
LINE
  5
A3B
330
A02
100
AcDbEntity
  8
Sketch052
100
AcDbLine
 10
-299.5
 20
-63
 30
0
 11
-271.25
 21
-63
 31
0
  0
ARC
  5
A3C
330
A02
100
AcDbEntity
  8
Sketch052
100
AcDbCircle
 10
-271.25
 20
-60
 30
0
 40
3
100
AcDbArc
 50
-90
 51
0
  0
LINE
  5
A3D
330
A02
100
AcDbEntity
  8
Sketch052
100
AcDbLine
 10
-268.25
 20
-56.3604
 30
0
 11
-268.25
 21
-60
 31
0
  0
ARC
  5
A3E
330
A02
100
AcDbEntity
  8
Sketch052
100
AcDbCircle
 10
-265
 20
-43
 30
0
 40
13.75
100
AcDbArc
 50
0
 51
-103.672
  0
ARC
  5
A3F
330
A02
100
AcDbEntity
  8
Sketch052
100
AcDbCircle
 10
-265
 20
-43
 30
0
 40
13.75
100
AcDbArc
 50
-76.328
 51
0
  0
LINE
  5
A40
330
A02
100
AcDbEntity
  8
Sketch052
100
AcDbLine
 10
-261.75
 20
-60
 30
0
 11
-261.75
 21
-56.3604
 31
0
  0
ARC
  5
A41
330
A02
100
AcDbEntity
  8
Sketch052
100
AcDbCircle
 10
-258.75
 20
-60
 30
0
 40
3
100
AcDbArc
 50
180
 51
-90
  0
LINE
  5
A42
330
A02
100
AcDbEntity
  8
Sketch052
100
AcDbLine
 10
-258.75
 20
-63
 30
0
 11
-231.25
 21
-63
 31
0
  0
ARC
  5
A43
330
A02
100
AcDbEntity
  8
Sketch052
100
AcDbCircle
 10
-231.25
 20
-60
 30
0
 40
3
100
AcDbArc
 50
-90
 51
0
  0
LINE
  5
A44
330
A02
100
AcDbEntity
  8
Sketch052
100
AcDbLine
 10
-228.25
 20
-56.3604
 30
0
 11
-228.25
 21
-60
 31
0
  0
ARC
  5
A45
330
A02
100
AcDbEntity
  8
Sketch052
100
AcDbCircle
 10
-225
 20
-43
 30
0
 40
13.75
100
AcDbArc
 50
0
 51
-103.672
  0
ARC
  5
A46
330
A02
100
AcDbEntity
  8
Sketch052
100
AcDbCircle
 10
-225
 20
-43
 30
0
 40
13.75
100
AcDbArc
 50
-76.328
 51
0
  0
LINE
  5
A47
330
A02
100
AcDbEntity
  8
Sketch052
100
AcDbLine
 10
-221.75
 20
-60
 30
0
 11
-221.75
 21
-56.3604
 31
0
  0
ARC
  5
A48
330
A02
100
AcDbEntity
  8
Sketch052
100
AcDbCircle
 10
-218.75
 20
-60
 30
0
 40
3
100
AcDbArc
 50
180
 51
-90
  0
LINE
  5
A49
330
A02
100
AcDbEntity
  8
Sketch052
100
AcDbLine
 10
-218.75
 20
-63
 30
0
 11
-192.25
 21
-63
 31
0
  0
ARC
  5
A4A
330
A02
100
AcDbEntity
  8
Sketch052
100
AcDbCircle
 10
-192.25
 20
-60
 30
0
 40
3
100
AcDbArc
 50
-90
 51
0
  0
LINE
  5
A4B
330
A02
100
AcDbEntity
  8
Sketch052
100
AcDbLine
 10
-189.25
 20
-58.4252
 30
0
 11
-189.25
 21
-60
 31
0
  0
ARC
  5
A4C
330
A02
100
AcDbEntity
  8
Sketch052
100
AcDbCircle
 10
-185
 20
-43
 30
0
 40
16
100
AcDbArc
 50
0
 51
-105.404
  0
ARC
  5
A4D
330
A02
100
AcDbEntity
  8
Sketch052
100
AcDbCircle
 10
-185
 20
-43
 30
0
 40
16
100
AcDbArc
 50
-74.5959
 51
-2.54444e-14
  0
LINE
  5
A4E
330
A02
100
AcDbEntity
  8
Sketch052
100
AcDbLine
 10
-180.75
 20
-60
 30
0
 11
-180.75
 21
-58.4252
 31
0
  0
ARC
  5
A4F
330
A02
100
AcDbEntity
  8
Sketch052
100
AcDbCircle
 10
-177.75
 20
-60
 30
0
 40
3
100
AcDbArc
 50
180
 51
-90
  0
LINE
  5
A50
330
A02
100
AcDbEntity
  8
Sketch052
100
AcDbLine
 10
-177.75
 20
-63
 30
0
 11
-152.25
 21
-63
 31
0
  0
ARC
  5
A51
330
A02
100
AcDbEntity
  8
Sketch052
100
AcDbCircle
 10
-152.25
 20
-60
 30
0
 40
3
100
AcDbArc
 50
-90
 51
0
  0
LINE
  5
A52
330
A02
100
AcDbEntity
  8
Sketch052
100
AcDbLine
 10
-149.25
 20
-58.4252
 30
0
 11
-149.25
 21
-60
 31
0
  0
ARC
  5
A53
330
A02
100
AcDbEntity
  8
Sketch052
100
AcDbCircle
 10
-145
 20
-43
 30
0
 40
16
100
AcDbArc
 50
0
 51
-105.404
  0
ARC
  5
A54
330
A02
100
AcDbEntity
  8
Sketch052
100
AcDbCircle
 10
-145
 20
-43
 30
0
 40
16
100
AcDbArc
 50
-74.5959
 51
-2.54444e-14
  0
LINE
  5
A55
330
A02
100
AcDbEntity
  8
Sketch052
100
AcDbLine
 10
-140.75
 20
-60
 30
0
 11
-140.75
 21
-58.4252
 31
0
  0
ARC
  5
A56
330
A02
100
AcDbEntity
  8
Sketch052
100
AcDbCircle
 10
-137.75
 20
-60
 30
0
 40
3
100
AcDbArc
 50
180
 51
-90
  0
LINE
  5
A57
330
A02
100
AcDbEntity
  8
Sketch052
100
AcDbLine
 10
-137.75
 20
-63
 30
0
 11
-110.25
 21
-63
 31
0
  0
ARC
  5
A58
330
A02
100
AcDbEntity
  8
Sketch052
100
AcDbCircle
 10
-110.25
 20
-60
 30
0
 40
3
100
AcDbArc
 50
-90
 51
0
  0
LINE
  5
A59
330
A02
100
AcDbEntity
  8
Sketch052
100
AcDbLine
 10
-107.25
 20
-52.7436
 30
0
 11
-107.25
 21
-60
 31
0
  0
ARC
  5
A5A
330
A02
100
AcDbEntity
  8
Sketch052
100
AcDbCircle
 10
-105
 20
-43
 30
0
 40
10
100
AcDbArc
 50
0
 51
-103.003
  0
ARC
  5
A5B
330
A02
100
AcDbEntity
  8
Sketch052
100
AcDbCircle
 10
-105
 20
-43
 30
0
 40
10
100
AcDbArc
 50
-76.9971
 51
0
  0
LINE
  5
A5C
330
A02
100
AcDbEntity
  8
Sketch052
100
AcDbLine
 10
-102.75
 20
-60
 30
0
 11
-102.75
 21
-52.7436
 31
0
  0
ARC
  5
A5D
330
A02
100
AcDbEntity
  8
Sketch052
100
AcDbCircle
 10
-99.75
 20
-60
 30
0
 40
3
100
AcDbArc
 50
180
 51
-90
  0
LINE
  5
A5E
330
A02
100
AcDbEntity
  8
Sketch052
100
AcDbLine
 10
-99.75
 20
-63
 30
0
 11
-70.25
 21
-63
 31
0
  0
ARC
  5
A5F
330
A02
100
AcDbEntity
  8
Sketch052
100
AcDbCircle
 10
-70.25
 20
-60
 30
0
 40
3
100
AcDbArc
 50
-90
 51
0
  0
LINE
  5
A60
330
A02
100
AcDbEntity
  8
Sketch052
100
AcDbLine
 10
-67.25
 20
-54.5326
 30
0
 11
-67.25
 21
-60
 31
0
  0
ARC
  5
A61
330
A02
100
AcDbEntity
  8
Sketch052
100
AcDbCircle
 10
-65
 20
-43
 30
0
 40
11.75
100
AcDbArc
 50
0
 51
-101.04
  0
ARC
  5
A62
330
A02
100
AcDbEntity
  8
Sketch052
100
AcDbCircle
 10
-65
 20
-43
 30
0
 40
11.75
100
AcDbArc
 50
-78.9603
 51
0
  0
LINE
  5
A63
330
A02
100
AcDbEntity
  8
Sketch052
100
AcDbLine
 10
-62.75
 20
-60
 30
0
 11
-62.75
 21
-54.5326
 31
0
  0
ARC
  5
A64
330
A02
100
AcDbEntity
  8
Sketch052
100
AcDbCircle
 10
-59.75
 20
-60
 30
0
 40
3
100
AcDbArc
 50
180
 51
-90
  0
LINE
  5
A65
330
A02
100
AcDbEntity
  8
Sketch052
100
AcDbLine
 10
-59.75
 20
-63
 30
0
 11
-30.5
 21
-63
 31
0
  0
ARC
  5
A66
330
A02
100
AcDbEntity
  8
Sketch052
100
AcDbCircle
 10
-30.5
 20
-60
 30
0
 40
3
100
AcDbArc
 50
-90
 51
0
  0
LINE
  5
A67
330
A02
100
AcDbEntity
  8
Sketch052
100
AcDbLine
 10
-27.5
 20
-54.481
 30
0
 11
-27.5
 21
-60
 31
0
  0
ARC
  5
A68
330
A02
100
AcDbEntity
  8
Sketch052
100
AcDbCircle
 10
-25
 20
-43
 30
0
 40
11.75
100
AcDbArc
 50
0
 51
-102.284
  0
ARC
  5
A69
330
A02
100
AcDbEntity
  8
Sketch052
100
AcDbCircle
 10
-25
 20
-43
 30
0
 40
11.75
100
AcDbArc
 50
-77.7155
 51
0
  0
LINE
  5
A6A
330
A02
100
AcDbEntity
  8
Sketch052
100
AcDbLine
 10
-22.5
 20
-60
 30
0
 11
-22.5
 21
-54.481
 31
0
  0
ARC
  5
A6B
330
A02
100
AcDbEntity
  8
Sketch052
100
AcDbCircle
 10
-19.5
 20
-60
 30
0
 40
3
100
AcDbArc
 50
180
 51
-90
  0
LINE
  5
A6C
330
A02
100
AcDbEntity
  8
Sketch052
100
AcDbLine
 10
-19.5
 20
-63
 30
0
 11
9.25
 21
-63
 31
0
  0
ARC
  5
A6D
330
A02
100
AcDbEntity
  8
Sketch052
100
AcDbCircle
 10
9.25
 20
-60
 30
0
 40
3
100
AcDbArc
 50
-90
 51
0
  0
LINE
  5
A6E
330
A02
100
AcDbEntity
  8
Sketch052
100
AcDbLine
 10
12.25
 20
-56.4722
 30
0
 11
12.25
 21
-60
 31
0
  0
ARC
  5
A6F
330
A02
100
AcDbEntity
  8
Sketch052
100
AcDbCircle
 10
15
 20
-43
 30
0
 40
13.75
100
AcDbArc
 50
0
 51
-101.537
  0
ARC
  5
A70
330
A02
100
AcDbEntity
  8
Sketch052
100
AcDbCircle
 10
15
 20
-43
 30
0
 40
13.75
100
AcDbArc
 50
-78.463
 51
0
  0
LINE
  5
A71
330
A02
100
AcDbEntity
  8
Sketch052
100
AcDbLine
 10
17.75
 20
-60
 30
0
 11
17.75
 21
-56.4722
 31
0
  0
ARC
  5
A72
330
A02
100
AcDbEntity
  8
Sketch052
100
AcDbCircle
 10
20.75
 20
-60
 30
0
 40
3
100
AcDbArc
 50
180
 51
-90
  0
LINE
  5
A73
330
A02
100
AcDbEntity
  8
Sketch052
100
AcDbLine
 10
20.75
 20
-63
 30
0
 11
48.75
 21
-63
 31
0
  0
ARC
  5
A74
330
A02
100
AcDbEntity
  8
Sketch052
100
AcDbCircle
 10
48.75
 20
-60
 30
0
 40
3
100
AcDbArc
 50
-90
 51
0
  0
LINE
  5
A75
330
A02
100
AcDbEntity
  8
Sketch052
100
AcDbLine
 10
51.75
 20
-56.3604
 30
0
 11
51.75
 21
-60
 31
0
  0
ARC
  5
A76
330
A02
100
AcDbEntity
  8
Sketch052
100
AcDbCircle
 10
55
 20
-43
 30
0
 40
13.75
100
AcDbArc
 50
0
 51
-103.672
  0
ARC
  5
A77
330
A02
100
AcDbEntity
  8
Sketch052
100
AcDbCircle
 10
55
 20
-43
 30
0
 40
13.75
100
AcDbArc
 50
-76.328
 51
0
  0
LINE
  5
A78
330
A02
100
AcDbEntity
  8
Sketch052
100
AcDbLine
 10
58.25
 20
-60
 30
0
 11
58.25
 21
-56.3604
 31
0
  0
ARC
  5
A79
330
A02
100
AcDbEntity
  8
Sketch052
100
AcDbCircle
 10
61.25
 20
-60
 30
0
 40
3
100
AcDbArc
 50
180
 51
-90
  0
ENDSEC
  0
SECTION
  2
OBJECTS
  0
DICTIONARY
  5
F000
330
0
100
AcDbDictionary
  3
ACAD_GROUP
350
F001
  0
DICTIONARY
  5
F001
330
F000
100
AcDbDictionary
  0
ENDSEC
  0
EOF