999
FreeCAD v2023.1102 14555 (Git shallow)
  0
SECTION
  2
HEADER
  9
$ACADVER
  1
AC1014
  9
$ACADMAINTVER
 70
     9
  9
$DWGCODEPAGE
  3
ANSI_1252
  9
$TEXTSTYLE
  7
STANDARD
  9
$DIMSTYLE
  2
STANDARD
  9
$DIMTXSTY
  7
STANDARD
  9
$CMLSTYLE
  2
STANDARD
  9
$LUNITS
 70
2
  9
$INSUNITS
 70
4
  9
$PEXTMAX
 10
50
 20
50
 30
50
  9
$PEXTMIN
 10
0
 20
0
 30
0
  9
$HANDSEED
  5
FFFF
  0
ENDSEC
  0
SECTION
  2
CLASSES
  0
CLASS
  1
ACDBDICTIONARYWDFLT
  2
AcDbDictionaryWithDefault
  3
ObjectDBX Classes
 90
        0
280
     0
281
     0
  0
CLASS
  1
XRECORD
  2
AcDbXrecord
  3
ObjectDBX Classes
 90
        0
280
     0
281
     0
  0
CLASS
  1
LWPOLYLINE
  2
AcDbPolyline
  3
ObjectDBX Classes
 90
        0
280
     0
281
     1
  0
ENDSEC
  0
SECTION
  2
TABLES
  0
TABLE
  2
VPORT
  5
20
330
0
100
AcDbSymbolTable
 70
     1
  0
VPORT
  5
21
330
20
100
AcDbSymbolTableRecord
100
AcDbViewportTableRecord
  2
*ACTIVE
 70
     0
  0
ENDTAB
  0
TABLE
  2
LTYPE
  5
22
330
0
100
AcDbSymbolTable
 70
     1
  0
LTYPE
  5
23
330
21
100
AcDbSymbolTableRecord
100
AcDbLinetypeTableRecord
  2
BYBLOCK
 70
     0
  3

 72
    65
 73
     0
 40
0.0
  0
LTYPE
  5
24
330
21
100
AcDbSymbolTableRecord
100
AcDbLinetypeTableRecord
  2
BYLAYER
 70
     0
  3

 72
    65
 73
     0
 40
0.0
  0
LTYPE
  5
25
330
21
100
AcDbSymbolTableRecord
100
AcDbLinetypeTableRecord
  2
CONTINUOUS
 70
     0
  3
Solid line
 72
    65
 73
     0
 40
0.0
  0
ENDTAB
  0
TABLE
  2
LAYER
  5
A1C
330
0
100
AcDbSymbolTable
 70
3
  0
LAYER
  5
A1D
330
A1C
100
AcDbSymbolTableRecord
100
AcDbLayerTableRecord
  2
0
 70
   0
 62
   7
  6
CONTINUOUS
  0
LAYER
  5
A1E
330
A1C
100
AcDbSymbolTableRecord
100
AcDbLayerTableRecord
  2
none
 70
    0
 62
    7
  6
CONTINUOUS
  0
LAYER
  5
A1F
330
A1C
100
AcDbSymbolTableRecord
100
AcDbLayerTableRecord
  2
Sketch032
 70
    0
 62
    7
  6
CONTINUOUS
  0
ENDTAB
  0
TABLE
  2
STYLE
  5
70
330
0
100
AcDbSymbolTable
 70
     2
  0
STYLE
  5
71
330
70
100
AcDbSymbolTableRecord
100
AcDbTextStyleTableRecord
  2
STANDARD
 70
     0
 40
0.0
 41
1.0
 50
0.0
 71
     0
 42
2.5
  3
arial.ttf
  4

  0
STYLE
  5
72
330
70
100
AcDbSymbolTableRecord
100
AcDbTextStyleTableRecord
  2
ANNOTATIVE
 70
     0
 40
0.0
 41
1.0
 50
0.0
 71
     0
 42
2.5
  3
arial.ttf
  4

  0
ENDTAB
  0
TABLE
  2
VIEW
  5
73
330
0
100
AcDbSymbolTable
 70
     0
  0
ENDTAB
  0
TABLE
  2
UCS
  5
74
330
0
100
AcDbSymbolTable
 70
     0
  0
ENDTAB
  0
TABLE
  2
APPID
  5
75
330
0
100
AcDbSymbolTable
 70
     2
  0
APPID
  5
76
330
75
100
AcDbSymbolTableRecord
100
AcDbRegAppTableRecord
  2
ACAD
 70
     0
  0
APPID
  5
77
330
75
100
AcDbSymbolTableRecord
100
AcDbRegAppTableRecord
  2
ACADANNOTATIVE
 70
     0
  0
ENDTAB
  0
TABLE
  2
DIMSTYLE
  5
78
330
0
100
AcDbSymbolTable
 70
     2
  0
DIMSTYLE
105
79
330
78
100
AcDbSymbolTableRecord
100
AcDbDimStyleTableRecord
  2
STANDARD
 70
     0
  3

  4

  5

  6

  7

 40
0.0
 41
2.5
 42
0.625
 43
3.75
 44
1.25
 45
0.0
 46
0.0
 47
0.0
 48
0.0
140
2.5
141
2.5
142
0.0
143
0.03937007874016
144
1.0
145
0.0
146
1.0
147
0.625
 71
     0
 72
     0
 73
     0
 74
     0
 75
     0
 76
     0
 77
     1
 78
     8
170
     0
171
     3
172
     1
173
     0
174
     0
175
     0
176
     0
177
     0
178
     0
270
     2
271
     2
272
     2
273
     2
274
     3
340
71
275
     0
280
     0
281
     0
282
     0
283
     0
284
     8
285
     0
286
     0
287
     3
288
     0
  0
ENDTAB
  0
TABLE
  2
BLOCK_RECORD
  5
A01
330
0
100
AcDbSymbolTable
  70
5
  0
BLOCK_RECORD
  5
A02
330
A01
100
AcDbSymbolTableRecord
100
AcDbBlockTableRecord
  2
*MODEL_SPACE
  0
BLOCK_RECORD
  5
A03
330
A01
100
AcDbSymbolTableRecord
100
AcDbBlockTableRecord
  2
*PAPER_SPACE
  0
ENDTAB
  0
ENDSEC
  0
SECTION
  2
BLOCKS
  0
BLOCK
  5
A04
330
A02
100
AcDbEntity
  8
0
100
AcDbBlockBegin
  2
*MODEL_SPACE
 70
   0
 10
0
 20
0
 30
0
  3
*MODEL_SPACE
  1
 
  0
ENDBLK
  5
A05
330
A02
100
AcDbEntity
  8
0
100
AcDbBlockEnd
  0
BLOCK
  5
A06
330
A03
100
AcDbEntity
 67
1
  8
0
100
AcDbBlockBegin
  2
*PAPER_SPACE
 70
   0
 10
0
 20
0
 30
0
  3
*PAPER_SPACE
  1
 
  0
ENDBLK
  5
A07
330
A03
100
AcDbEntity
 67
    1
  8
0
100
AcDbBlockEnd
  0
ENDSEC
  0
SECTION
  2
ENTITIES
  0
LINE
  5
A08
330
A02
100
AcDbEntity
  8
Sketch032
100
AcDbLine
 10
-92
 20
8
 30
0
 11
-92
 21
-5.59552e-14
 31
0
  0
SPLINE
  5
A09
330
A02
100
AcDbEntity
  8
Sketch032
100
AcDbSpline
210
0
220
0
230
1
 70
8
 71
2
 72
30
 73
27
 74
0
 40
1.5708
 40
1.5708
 40
1.5708
 40
1.683
 40
1.683
 40
1.7952
 40
1.7952
 40
1.9074
 40
1.9074
 40
2.0196
 40
2.0196
 40
2.1318
 40
2.1318
 40
2.24399
 40
2.24399
 40
2.35619
 40
2.35619
 40
2.46839
 40
2.46839
 40
2.58059
 40
2.58059
 40
2.69279
 40
2.69279
 40
2.80499
 40
2.80499
 40
2.91719
 40
2.91719
 40
3.14159
 40
3.14159
 40
3.14159
 10
-92
 20
-5.59552e-14
 30
0
 10
-91.9843
 20
-5.60139e-14
 30
0
 10
-91.9686
 20
-5.60726e-14
 30
0
 10
-91.9216
 20
-5.61235e-14
 30
0
 10
-91.8746
 20
-5.61745e-14
 30
0
 10
-91.797
 20
-5.6217e-14
 30
0
 10
-91.7194
 20
-5.62596e-14
 30
0
 10
-91.6121
 20
-5.62933e-14
 30
0
 10
-91.5048
 20
-5.6327e-14
 30
0
 10
-91.3692
 20
-5.63514e-14
 30
0
 10
-91.2336
 20
-5.63757e-14
 30
0
 10
-91.0714
 20
-5.63905e-14
 30
0
 10
-90.9092
 20
-5.64052e-14
 30
0
 10
-90.7223
 20
-5.64102e-14
 30
0
 10
-90.5355
 20
-5.64151e-14
 30
0
 10
-90.3265
 20
-5.64102e-14
 30
0
 10
-90.1174
 20
-5.64052e-14
 30
0
 10
-89.8888
 20
-5.63905e-14
 30
0
 10
-89.6602
 20
-5.63757e-14
 30
0
 10
-89.4148
 20
-5.63514e-14
 30
0
 10
-89.1694
 20
-5.6327e-14
 30
0
 10
-88.9104
 20
-5.62933e-14
 30
0
 10
-88.6514
 20
-5.62596e-14
 30
0
 10
-88.382
 20
-5.6217e-14
 30
0
 10
-88.1126
 20
-5.61745e-14
 30
0
 10
-87.5618
 20
-5.60769e-14
 30
0
 10
-87
 20
-5.59552e-14
 30
0
  0
LINE
  5
A0A
330
A02
100
AcDbEntity
  8
Sketch032
100
AcDbLine
 10
-87
 20
-5.59552e-14
 30
0
 11
-87
 21
8
 31
0
  0
LINE
  5
A0B
330
A02
100
AcDbEntity
  8
Sketch032
100
AcDbLine
 10
-75
 20
-5.32907e-14
 30
0
 11
-87
 21
-5.59552e-14
 31
0
  0
LINE
  5
A0C
330
A02
100
AcDbEntity
  8
Sketch032
100
AcDbLine
 10
-75
 20
-5.32907e-14
 30
0
 11
-75
 21
8
 31
0
  0
LINE
  5
A0D
330
A02
100
AcDbEntity
  8
Sketch032
100
AcDbLine
 10
93.2396
 20
1.5412e-14
 30
0
 11
-75
 21
-5.32907e-14
 31
0
  0
LINE
  5
A0E
330
A02
100
AcDbEntity
  8
Sketch032
100
AcDbLine
 10
93.2396
 20
1.5412e-14
 30
0
 11
93.2396
 21
8
 31
0
  0
SPLINE
  5
A0F
330
A02
100
AcDbEntity
  8
Sketch032
100
AcDbSpline
210
0
220
0
230
1
 70
8
 71
1
 72
17
 73
15
 74
0
 40
3.83972
 40
3.83972
 40
3.90206
 40
3.96439
 40
4.02672
 40
4.08906
 40
4.15139
 40
4.21372
 40
4.27606
 40
4.33839
 40
4.40072
 40
4.46306
 40
4.52539
 40
4.58772
 40
4.65006
 40
4.71239
 40
4.71239
 10
93.2396
 20
1.5412e-14
 30
0
 10
93.4719
 20
1.55097e-14
 30
0
 10
93.6909
 20
1.56075e-14
 30
0
 10
93.8956
 20
1.57051e-14
 30
0
 10
94.0853
 20
1.58022e-14
 30
0
 10
94.2593
 20
1.58982e-14
 30
0
 10
94.4168
 20
1.59929e-14
 30
0
 10
94.5572
 20
1.60858e-14
 30
0
 10
94.68
 20
1.61767e-14
 30
0
 10
94.7848
 20
1.62651e-14
 30
0
 10
94.871
 20
1.63508e-14
 30
0
 10
94.9385
 20
1.64333e-14
 30
0
 10
94.9868
 20
1.65124e-14
 30
0
 10
95.0159
 20
1.65877e-14
 30
0
 10
95.0257
 20
1.6659e-14
 30
0
  0
LINE
  5
A10
330
A02
100
AcDbEntity
  8
Sketch032
100
AcDbLine
 10
95.0257
 20
8
 30
0
 11
95.0257
 21
1.59872e-14
 31
0
  0
SPLINE
  5
A11
330
A02
100
AcDbEntity
  8
Sketch032
100
AcDbSpline
210
0
220
0
230
1
 70
8
 71
1
 72
17
 73
15
 74
0
 40
3.83972
 40
3.83972
 40
3.90206
 40
3.96439
 40
4.02672
 40
4.08906
 40
4.15139
 40
4.21372
 40
4.27606
 40
4.33839
 40
4.40072
 40
4.46306
 40
4.52539
 40
4.58772
 40
4.65006
 40
4.71239
 40
4.71239
 10
93.2396
 20
8
 30
0
 10
93.4719
 20
8
 30
0
 10
93.6909
 20
8
 30
0
 10
93.8956
 20
8
 30
0
 10
94.0853
 20
8
 30
0
 10
94.2593
 20
8
 30
0
 10
94.4168
 20
8
 30
0
 10
94.5572
 20
8
 30
0
 10
94.68
 20
8
 30
0
 10
94.7848
 20
8
 30
0
 10
94.871
 20
8
 30
0
 10
94.9385
 20
8
 30
0
 10
94.9868
 20
8
 30
0
 10
95.0159
 20
8
 30
0
 10
95.0257
 20
8
 30
0
  0
LINE
  5
A12
330
A02
100
AcDbEntity
  8
Sketch032
100
AcDbLine
 10
93.2396
 20
8
 30
0
 11
-75
 21
8
 31
0
  0
LINE
  5
A13
330
A02
100
AcDbEntity
  8
Sketch032
100
AcDbLine
 10
-75
 20
8
 30
0
 11
-87
 21
8
 31
0
  0
SPLINE
  5
A14
330
A02
100
AcDbEntity
  8
Sketch032
100
AcDbSpline
210
0
220
0
230
1
 70
8
 71
2
 72
30
 73
27
 74
0
 40
1.5708
 40
1.5708
 40
1.5708
 40
1.683
 40
1.683
 40
1.7952
 40
1.7952
 40
1.9074
 40
1.9074
 40
2.0196
 40
2.0196
 40
2.1318
 40
2.1318
 40
2.24399
 40
2.24399
 40
2.35619
 40
2.35619
 40
2.46839
 40
2.46839
 40
2.58059
 40
2.58059
 40
2.69279
 40
2.69279
 40
2.80499
 40
2.80499
 40
2.91719
 40
2.91719
 40
3.14159
 40
3.14159
 40
3.14159
 10
-92
 20
8
 30
0
 10
-91.9843
 20
8
 30
0
 10
-91.9686
 20
8
 30
0
 10
-91.9216
 20
8
 30
0
 10
-91.8746
 20
8
 30
0
 10
-91.797
 20
8
 30
0
 10
-91.7194
 20
8
 30
0
 10
-91.6121
 20
8
 30
0
 10
-91.5048
 20
8
 30
0
 10
-91.3692
 20
8
 30
0
 10
-91.2336
 20
8
 30
0
 10
-91.0714
 20
8
 30
0
 10
-90.9092
 20
8
 30
0
 10
-90.7223
 20
8
 30
0
 10
-90.5355
 20
8
 30
0
 10
-90.3265
 20
8
 30
0
 10
-90.1174
 20
8
 30
0
 10
-89.8888
 20
8
 30
0
 10
-89.6602
 20
8
 30
0
 10
-89.4148
 20
8
 30
0
 10
-89.1694
 20
8
 30
0
 10
-88.9104
 20
8
 30
0
 10
-88.6514
 20
8
 30
0
 10
-88.382
 20
8
 30
0
 10
-88.1126
 20
8
 30
0
 10
-87.5618
 20
8
 30
0
 10
-87
 20
8
 30
0
  0
LINE
  5
A15
330
A02
100
AcDbEntity
  8
Sketch032
100
AcDbLine
 10
2.66465e-14
 20
-2.88658e-15
 30
0
 11
2.66465e-14
 21
-52
 31
0
  0
LINE
  5
A16
330
A02
100
AcDbEntity
  8
Sketch032
100
AcDbLine
 10
2.66465e-14
 20
-52
 30
0
 11
10
 21
-52
 31
0
  0
LINE
  5
A17
330
A02
100
AcDbEntity
  8
Sketch032
100
AcDbLine
 10
10
 20
-52
 30
0
 11
10
 21
-60
 31
0
  0
LINE
  5
A18
330
A02
100
AcDbEntity
  8
Sketch032
100
AcDbLine
 10
10
 20
-60
 30
0
 11
30
 21
-60
 31
0
  0
LINE
  5
A19
330
A02
100
AcDbEntity
  8
Sketch032
100
AcDbLine
 10
30
 20
-60
 30
0
 11
30
 21
-52
 31
0
  0
LINE
  5
A1A
330
A02
100
AcDbEntity
  8
Sketch032
100
AcDbLine
 10
30
 20
-52
 30
0
 11
40
 21
-52
 31
0
  0
LINE
  5
A1B
330
A02
100
AcDbEntity
  8
Sketch032
100
AcDbLine
 10
40
 20
-52
 30
0
 11
40
 21
0
 31
0
  0
ENDSEC
  0
SECTION
  2
OBJECTS
  0
DICTIONARY
  5
F000
330
0
100
AcDbDictionary
  3
ACAD_GROUP
350
F001
  0
DICTIONARY
  5
F001
330
F000
100
AcDbDictionary
  0
ENDSEC
  0
EOF