999
FreeCAD v2024.123 14555 (Git shallow)
  0
SECTION
  2
HEADER
  9
$ACADVER
  1
AC1014
  9
$ACADMAINTVER
 70
     9
  9
$DWGCODEPAGE
  3
ANSI_1252
  9
$TEXTSTYLE
  7
STANDARD
  9
$DIMSTYLE
  2
STANDARD
  9
$DIMTXSTY
  7
STANDARD
  9
$CMLSTYLE
  2
STANDARD
  9
$LUNITS
 70
2
  9
$INSUNITS
 70
4
  9
$PEXTMAX
 10
50
 20
50
 30
50
  9
$PEXTMIN
 10
0
 20
0
 30
0
  9
$HANDSEED
  5
FFFF
  0
ENDSEC
  0
SECTION
  2
CLASSES
  0
CLASS
  1
ACDBDICTIONARYWDFLT
  2
AcDbDictionaryWithDefault
  3
ObjectDBX Classes
 90
        0
280
     0
281
     0
  0
CLASS
  1
XRECORD
  2
AcDbXrecord
  3
ObjectDBX Classes
 90
        0
280
     0
281
     0
  0
CLASS
  1
LWPOLYLINE
  2
AcDbPolyline
  3
ObjectDBX Classes
 90
        0
280
     0
281
     1
  0
ENDSEC
  0
SECTION
  2
TABLES
  0
TABLE
  2
VPORT
  5
20
330
0
100
AcDbSymbolTable
 70
     1
  0
VPORT
  5
21
330
20
100
AcDbSymbolTableRecord
100
AcDbViewportTableRecord
  2
*ACTIVE
 70
     0
  0
ENDTAB
  0
TABLE
  2
LTYPE
  5
22
330
0
100
AcDbSymbolTable
 70
     1
  0
LTYPE
  5
23
330
21
100
AcDbSymbolTableRecord
100
AcDbLinetypeTableRecord
  2
BYBLOCK
 70
     0
  3

 72
    65
 73
     0
 40
0.0
  0
LTYPE
  5
24
330
21
100
AcDbSymbolTableRecord
100
AcDbLinetypeTableRecord
  2
BYLAYER
 70
     0
  3

 72
    65
 73
     0
 40
0.0
  0
LTYPE
  5
25
330
21
100
AcDbSymbolTableRecord
100
AcDbLinetypeTableRecord
  2
CONTINUOUS
 70
     0
  3
Solid line
 72
    65
 73
     0
 40
0.0
  0
ENDTAB
  0
TABLE
  2
LAYER
  5
A8C
330
0
100
AcDbSymbolTable
 70
3
  0
LAYER
  5
A8D
330
A8C
100
AcDbSymbolTableRecord
100
AcDbLayerTableRecord
  2
0
 70
   0
 62
   7
  6
CONTINUOUS
  0
LAYER
  5
A8E
330
A8C
100
AcDbSymbolTableRecord
100
AcDbLayerTableRecord
  2
none
 70
    0
 62
    7
  6
CONTINUOUS
  0
LAYER
  5
A8F
330
A8C
100
AcDbSymbolTableRecord
100
AcDbLayerTableRecord
  2
Sketch098
 70
    0
 62
    7
  6
CONTINUOUS
  0
ENDTAB
  0
TABLE
  2
STYLE
  5
70
330
0
100
AcDbSymbolTable
 70
     2
  0
STYLE
  5
71
330
70
100
AcDbSymbolTableRecord
100
AcDbTextStyleTableRecord
  2
STANDARD
 70
     0
 40
0.0
 41
1.0
 50
0.0
 71
     0
 42
2.5
  3
arial.ttf
  4

  0
STYLE
  5
72
330
70
100
AcDbSymbolTableRecord
100
AcDbTextStyleTableRecord
  2
ANNOTATIVE
 70
     0
 40
0.0
 41
1.0
 50
0.0
 71
     0
 42
2.5
  3
arial.ttf
  4

  0
ENDTAB
  0
TABLE
  2
VIEW
  5
73
330
0
100
AcDbSymbolTable
 70
     0
  0
ENDTAB
  0
TABLE
  2
UCS
  5
74
330
0
100
AcDbSymbolTable
 70
     0
  0
ENDTAB
  0
TABLE
  2
APPID
  5
75
330
0
100
AcDbSymbolTable
 70
     2
  0
APPID
  5
76
330
75
100
AcDbSymbolTableRecord
100
AcDbRegAppTableRecord
  2
ACAD
 70
     0
  0
APPID
  5
77
330
75
100
AcDbSymbolTableRecord
100
AcDbRegAppTableRecord
  2
ACADANNOTATIVE
 70
     0
  0
ENDTAB
  0
TABLE
  2
DIMSTYLE
  5
78
330
0
100
AcDbSymbolTable
 70
     2
  0
DIMSTYLE
105
79
330
78
100
AcDbSymbolTableRecord
100
AcDbDimStyleTableRecord
  2
STANDARD
 70
     0
  3

  4

  5

  6

  7

 40
0.0
 41
2.5
 42
0.625
 43
3.75
 44
1.25
 45
0.0
 46
0.0
 47
0.0
 48
0.0
140
2.5
141
2.5
142
0.0
143
0.03937007874016
144
1.0
145
0.0
146
1.0
147
0.625
 71
     0
 72
     0
 73
     0
 74
     0
 75
     0
 76
     0
 77
     1
 78
     8
170
     0
171
     3
172
     1
173
     0
174
     0
175
     0
176
     0
177
     0
178
     0
270
     2
271
     2
272
     2
273
     2
274
     3
340
71
275
     0
280
     0
281
     0
282
     0
283
     0
284
     8
285
     0
286
     0
287
     3
288
     0
  0
ENDTAB
  0
TABLE
  2
BLOCK_RECORD
  5
A01
330
0
100
AcDbSymbolTable
  70
5
  0
BLOCK_RECORD
  5
A02
330
A01
100
AcDbSymbolTableRecord
100
AcDbBlockTableRecord
  2
*MODEL_SPACE
  0
BLOCK_RECORD
  5
A03
330
A01
100
AcDbSymbolTableRecord
100
AcDbBlockTableRecord
  2
*PAPER_SPACE
  0
ENDTAB
  0
ENDSEC
  0
SECTION
  2
BLOCKS
  0
BLOCK
  5
A04
330
A02
100
AcDbEntity
  8
0
100
AcDbBlockBegin
  2
*MODEL_SPACE
 70
   0
 10
0
 20
0
 30
0
  3
*MODEL_SPACE
  1
 
  0
ENDBLK
  5
A05
330
A02
100
AcDbEntity
  8
0
100
AcDbBlockEnd
  0
BLOCK
  5
A06
330
A03
100
AcDbEntity
 67
1
  8
0
100
AcDbBlockBegin
  2
*PAPER_SPACE
 70
   0
 10
0
 20
0
 30
0
  3
*PAPER_SPACE
  1
 
  0
ENDBLK
  5
A07
330
A03
100
AcDbEntity
 67
    1
  8
0
100
AcDbBlockEnd
  0
ENDSEC
  0
SECTION
  2
ENTITIES
  0
LINE
  5
A08
330
A02
100
AcDbEntity
  8
Sketch098
100
AcDbLine
 10
36.1
 20
1.1
 30
0
 11
48.6934
 21
13.6934
 31
0
  0
ARC
  5
A09
330
A02
100
AcDbEntity
  8
Sketch098
100
AcDbCircle
 10
49.0761
 20
14.6173
 30
0
 40
1
100
AcDbArc
 50
-112.5
 51
157.5
  0
LINE
  5
A0A
330
A02
100
AcDbEntity
  8
Sketch098
100
AcDbLine
 10
48.1522
 20
15
 30
0
 11
-26.1722
 21
15
 31
0
  0
LINE
  5
A0B
330
A02
100
AcDbEntity
  8
Sketch098
100
AcDbLine
 10
-26.1722
 20
15
 30
0
 11
-26.1722
 21
23
 31
0
  0
LINE
  5
A0C
330
A02
100
AcDbEntity
  8
Sketch098
100
AcDbLine
 10
-26.1722
 20
23
 30
0
 11
-46.1722
 21
23
 31
0
  0
LINE
  5
A0D
330
A02
100
AcDbEntity
  8
Sketch098
100
AcDbLine
 10
-46.1722
 20
23
 30
0
 11
-46.1722
 21
15
 31
0
  0
LINE
  5
A0E
330
A02
100
AcDbEntity
  8
Sketch098
100
AcDbLine
 10
-46.1722
 20
15
 30
0
 11
-158.839
 21
15
 31
0
  0
LINE
  5
A0F
330
A02
100
AcDbEntity
  8
Sketch098
100
AcDbLine
 10
-158.839
 20
15
 30
0
 11
-158.839
 21
23
 31
0
  0
LINE
  5
A10
330
A02
100
AcDbEntity
  8
Sketch098
100
AcDbLine
 10
-158.839
 20
23
 30
0
 11
-178.839
 21
23
 31
0
  0
LINE
  5
A11
330
A02
100
AcDbEntity
  8
Sketch098
100
AcDbLine
 10
-178.839
 20
23
 30
0
 11
-178.839
 21
15
 31
0
  0
LINE
  5
A12
330
A02
100
AcDbEntity
  8
Sketch098
100
AcDbLine
 10
-270.011
 20
15
 30
0
 11
-178.839
 21
15
 31
0
  0
LINE
  5
A13
330
A02
100
AcDbEntity
  8
Sketch098
100
AcDbLine
 10
-270.011
 20
23
 30
0
 11
-270.011
 21
15
 31
0
  0
LINE
  5
A14
330
A02
100
AcDbEntity
  8
Sketch098
100
AcDbLine
 10
-280.011
 20
23
 30
0
 11
-270.011
 21
23
 31
0
  0
LINE
  5
A15
330
A02
100
AcDbEntity
  8
Sketch098
100
AcDbLine
 10
-280.011
 20
15
 30
0
 11
-280.011
 21
23
 31
0
  0
ARC
  5
A16
330
A02
100
AcDbEntity
  8
Sketch098
100
AcDbCircle
 10
-280.011
 20
20
 30
0
 40
5
100
AcDbArc
 50
160
 51
-90
  0
LINE
  5
A17
330
A02
100
AcDbEntity
  8
Sketch098
100
AcDbLine
 10
-284.709
 20
21.7101
 30
0
 11
-272.698
 21
54.7101
 31
0
  0
ARC
  5
A18
330
A02
100
AcDbEntity
  8
Sketch098
100
AcDbCircle
 10
-268
 20
53
 30
0
 40
5
100
AcDbArc
 50
90
 51
160
  0
LINE
  5
A19
330
A02
100
AcDbEntity
  8
Sketch098
100
AcDbLine
 10
-255.995
 20
58
 30
0
 11
-268
 21
58
 31
0
  0
ARC
  5
A1A
330
A02
100
AcDbEntity
  8
Sketch098
100
AcDbCircle
 10
-255.995
 20
56.4311
 30
0
 40
1.56893
100
AcDbArc
 50
-20
 51
90
  0
LINE
  5
A1B
330
A02
100
AcDbEntity
  8
Sketch098
100
AcDbLine
 10
-261.361
 20
37.1006
 30
0
 11
-254.52
 21
55.8945
 31
0
  0
ARC
  5
A1C
330
A02
100
AcDbEntity
  8
Sketch098
100
AcDbCircle
 10
-258.354
 20
36.0061
 30
0
 40
3.2
100
AcDbArc
 50
160
 51
-110
  0
LINE
  5
A1D
330
A02
100
AcDbEntity
  8
Sketch098
100
AcDbLine
 10
-257.945
 20
32.4519
 30
0
 11
-259.448
 21
32.9991
 31
0
  0
ARC
  5
A1E
330
A02
100
AcDbEntity
  8
Sketch098
100
AcDbCircle
 10
-256.85
 20
35.4589
 30
0
 40
3.2
100
AcDbArc
 50
-110
 51
-20
  0
LINE
  5
A1F
330
A02
100
AcDbEntity
  8
Sketch098
100
AcDbLine
 10
-246.007
 20
55.8945
 30
0
 11
-253.843
 21
34.3645
 31
0
  0
ARC
  5
A20
330
A02
100
AcDbEntity
  8
Sketch098
100
AcDbCircle
 10
-243
 20
54.8
 30
0
 40
3.2
100
AcDbArc
 50
90
 51
160
  0
LINE
  5
A21
330
A02
100
AcDbEntity
  8
Sketch098
100
AcDbLine
 10
-229.995
 20
58
 30
0
 11
-243
 21
58
 31
0
  0
ARC
  5
A22
330
A02
100
AcDbEntity
  8
Sketch098
100
AcDbCircle
 10
-229.995
 20
56.4311
 30
0
 40
1.56893
100
AcDbArc
 50
-20
 51
90
  0
LINE
  5
A23
330
A02
100
AcDbEntity
  8
Sketch098
100
AcDbLine
 10
-235.361
 20
37.1006
 30
0
 11
-228.52
 21
55.8945
 31
0
  0
ARC
  5
A24
330
A02
100
AcDbEntity
  8
Sketch098
100
AcDbCircle
 10
-232.354
 20
36.0061
 30
0
 40
3.2
100
AcDbArc
 50
160
 51
-110
  0
LINE
  5
A25
330
A02
100
AcDbEntity
  8
Sketch098
100
AcDbLine
 10
-231.945
 20
32.4519
 30
0
 11
-233.448
 21
32.9991
 31
0
  0
ARC
  5
A26
330
A02
100
AcDbEntity
  8
Sketch098
100
AcDbCircle
 10
-230.85
 20
35.4589
 30
0
 40
3.2
100
AcDbArc
 50
-110
 51
-20
  0
LINE
  5
A27
330
A02
100
AcDbEntity
  8
Sketch098
100
AcDbLine
 10
-220.007
 20
55.8945
 30
0
 11
-227.843
 21
34.3645
 31
0
  0
ARC
  5
A28
330
A02
100
AcDbEntity
  8
Sketch098
100
AcDbCircle
 10
-217
 20
54.8
 30
0
 40
3.2
100
AcDbArc
 50
90
 51
160
  0
LINE
  5
A29
330
A02
100
AcDbEntity
  8
Sketch098
100
AcDbLine
 10
-203.995
 20
58
 30
0
 11
-217
 21
58
 31
0
  0
ARC
  5
A2A
330
A02
100
AcDbEntity
  8
Sketch098
100
AcDbCircle
 10
-203.995
 20
56.4311
 30
0
 40
1.56893
100
AcDbArc
 50
-20
 51
90
  0
LINE
  5
A2B
330
A02
100
AcDbEntity
  8
Sketch098
100
AcDbLine
 10
-209.361
 20
37.1006
 30
0
 11
-202.52
 21
55.8945
 31
0
  0
ARC
  5
A2C
330
A02
100
AcDbEntity
  8
Sketch098
100
AcDbCircle
 10
-206.354
 20
36.0061
 30
0
 40
3.2
100
AcDbArc
 50
160
 51
-110
  0
LINE
  5
A2D
330
A02
100
AcDbEntity
  8
Sketch098
100
AcDbLine
 10
-205.945
 20
32.4519
 30
0
 11
-207.448
 21
32.9991
 31
0
  0
ARC
  5
A2E
330
A02
100
AcDbEntity
  8
Sketch098
100
AcDbCircle
 10
-204.85
 20
35.4589
 30
0
 40
3.2
100
AcDbArc
 50
-110
 51
-20
  0
LINE
  5
A2F
330
A02
100
AcDbEntity
  8
Sketch098
100
AcDbLine
 10
-194.007
 20
55.8945
 30
0
 11
-201.843
 21
34.3645
 31
0
  0
ARC
  5
A30
330
A02
100
AcDbEntity
  8
Sketch098
100
AcDbCircle
 10
-191
 20
54.8
 30
0
 40
3.2
100
AcDbArc
 50
90
 51
160
  0
LINE
  5
A31
330
A02
100
AcDbEntity
  8
Sketch098
100
AcDbLine
 10
-177.995
 20
58
 30
0
 11
-191
 21
58
 31
0
  0
ARC
  5
A32
330
A02
100
AcDbEntity
  8
Sketch098
100
AcDbCircle
 10
-177.995
 20
56.4311
 30
0
 40
1.56893
100
AcDbArc
 50
-20
 51
90
  0
LINE
  5
A33
330
A02
100
AcDbEntity
  8
Sketch098
100
AcDbLine
 10
-183.361
 20
37.1006
 30
0
 11
-176.52
 21
55.8945
 31
0
  0
ARC
  5
A34
330
A02
100
AcDbEntity
  8
Sketch098
100
AcDbCircle
 10
-180.354
 20
36.0061
 30
0
 40
3.2
100
AcDbArc
 50
160
 51
-110
  0
LINE
  5
A35
330
A02
100
AcDbEntity
  8
Sketch098
100
AcDbLine
 10
-179.945
 20
32.4519
 30
0
 11
-181.448
 21
32.9991
 31
0
  0
ARC
  5
A36
330
A02
100
AcDbEntity
  8
Sketch098
100
AcDbCircle
 10
-178.85
 20
35.4589
 30
0
 40
3.2
100
AcDbArc
 50
-110
 51
-20
  0
LINE
  5
A37
330
A02
100
AcDbEntity
  8
Sketch098
100
AcDbLine
 10
-168.007
 20
55.8945
 30
0
 11
-175.843
 21
34.3645
 31
0
  0
ARC
  5
A38
330
A02
100
AcDbEntity
  8
Sketch098
100
AcDbCircle
 10
-165
 20
54.8
 30
0
 40
3.2
100
AcDbArc
 50
90
 51
160
  0
LINE
  5
A39
330
A02
100
AcDbEntity
  8
Sketch098
100
AcDbLine
 10
-151.995
 20
58
 30
0
 11
-165
 21
58
 31
0
  0
ARC
  5
A3A
330
A02
100
AcDbEntity
  8
Sketch098
100
AcDbCircle
 10
-151.995
 20
56.4311
 30
0
 40
1.56893
100
AcDbArc
 50
-20
 51
90
  0
LINE
  5
A3B
330
A02
100
AcDbEntity
  8
Sketch098
100
AcDbLine
 10
-157.361
 20
37.1006
 30
0
 11
-150.52
 21
55.8945
 31
0
  0
ARC
  5
A3C
330
A02
100
AcDbEntity
  8
Sketch098
100
AcDbCircle
 10
-154.354
 20
36.0061
 30
0
 40
3.2
100
AcDbArc
 50
160
 51
-110
  0
LINE
  5
A3D
330
A02
100
AcDbEntity
  8
Sketch098
100
AcDbLine
 10
-153.945
 20
32.4519
 30
0
 11
-155.448
 21
32.9991
 31
0
  0
ARC
  5
A3E
330
A02
100
AcDbEntity
  8
Sketch098
100
AcDbCircle
 10
-152.85
 20
35.4589
 30
0
 40
3.2
100
AcDbArc
 50
-110
 51
-20
  0
LINE
  5
A3F
330
A02
100
AcDbEntity
  8
Sketch098
100
AcDbLine
 10
-142.007
 20
55.8945
 30
0
 11
-149.843
 21
34.3645
 31
0
  0
ARC
  5
A40
330
A02
100
AcDbEntity
  8
Sketch098
100
AcDbCircle
 10
-139
 20
54.8
 30
0
 40
3.2
100
AcDbArc
 50
90
 51
160
  0
LINE
  5
A41
330
A02
100
AcDbEntity
  8
Sketch098
100
AcDbLine
 10
-125.995
 20
58
 30
0
 11
-139
 21
58
 31
0
  0
ARC
  5
A42
330
A02
100
AcDbEntity
  8
Sketch098
100
AcDbCircle
 10
-125.995
 20
56.4311
 30
0
 40
1.56893
100
AcDbArc
 50
-20
 51
90
  0
LINE
  5
A43
330
A02
100
AcDbEntity
  8
Sketch098
100
AcDbLine
 10
-131.361
 20
37.1006
 30
0
 11
-124.52
 21
55.8945
 31
0
  0
ARC
  5
A44
330
A02
100
AcDbEntity
  8
Sketch098
100
AcDbCircle
 10
-128.354
 20
36.0061
 30
0
 40
3.2
100
AcDbArc
 50
160
 51
-110
  0
LINE
  5
A45
330
A02
100
AcDbEntity
  8
Sketch098
100
AcDbLine
 10
-127.945
 20
32.4519
 30
0
 11
-129.448
 21
32.9991
 31
0
  0
ARC
  5
A46
330
A02
100
AcDbEntity
  8
Sketch098
100
AcDbCircle
 10
-126.85
 20
35.4589
 30
0
 40
3.2
100
AcDbArc
 50
-110
 51
-20
  0
LINE
  5
A47
330
A02
100
AcDbEntity
  8
Sketch098
100
AcDbLine
 10
-116.007
 20
55.8945
 30
0
 11
-123.843
 21
34.3645
 31
0
  0
ARC
  5
A48
330
A02
100
AcDbEntity
  8
Sketch098
100
AcDbCircle
 10
-113
 20
54.8
 30
0
 40
3.2
100
AcDbArc
 50
90
 51
160
  0
LINE
  5
A49
330
A02
100
AcDbEntity
  8
Sketch098
100
AcDbLine
 10
-99.9948
 20
58
 30
0
 11
-113
 21
58
 31
0
  0
ARC
  5
A4A
330
A02
100
AcDbEntity
  8
Sketch098
100
AcDbCircle
 10
-99.9948
 20
56.4311
 30
0
 40
1.56893
100
AcDbArc
 50
-20
 51
90
  0
LINE
  5
A4B
330
A02
100
AcDbEntity
  8
Sketch098
100
AcDbLine
 10
-105.361
 20
37.1006
 30
0
 11
-98.5204
 21
55.8945
 31
0
  0
ARC
  5
A4C
330
A02
100
AcDbEntity
  8
Sketch098
100
AcDbCircle
 10
-102.354
 20
36.0061
 30
0
 40
3.2
100
AcDbArc
 50
160
 51
-110
  0
LINE
  5
A4D
330
A02
100
AcDbEntity
  8
Sketch098
100
AcDbLine
 10
-101.945
 20
32.4519
 30
0
 11
-103.448
 21
32.9991
 31
0
  0
ARC
  5
A4E
330
A02
100
AcDbEntity
  8
Sketch098
100
AcDbCircle
 10
-100.85
 20
35.4589
 30
0
 40
3.2
100
AcDbArc
 50
-110
 51
-20
  0
LINE
  5
A4F
330
A02
100
AcDbEntity
  8
Sketch098
100
AcDbLine
 10
-90.007
 20
55.8945
 30
0
 11
-97.8433
 21
34.3645
 31
0
  0
ARC
  5
A50
330
A02
100
AcDbEntity
  8
Sketch098
100
AcDbCircle
 10
-87
 20
54.8
 30
0
 40
3.2
100
AcDbArc
 50
90
 51
160
  0
LINE
  5
A51
330
A02
100
AcDbEntity
  8
Sketch098
100
AcDbLine
 10
-73.9948
 20
58
 30
0
 11
-87
 21
58
 31
0
  0
ARC
  5
A52
330
A02
100
AcDbEntity
  8
Sketch098
100
AcDbCircle
 10
-73.9948
 20
56.4311
 30
0
 40
1.56893
100
AcDbArc
 50
-20
 51
90
  0
LINE
  5
A53
330
A02
100
AcDbEntity
  8
Sketch098
100
AcDbLine
 10
-79.3608
 20
37.1006
 30
0
 11
-72.5204
 21
55.8945
 31
0
  0
ARC
  5
A54
330
A02
100
AcDbEntity
  8
Sketch098
100
AcDbCircle
 10
-76.3538
 20
36.0061
 30
0
 40
3.2
100
AcDbArc
 50
160
 51
-110
  0
LINE
  5
A55
330
A02
100
AcDbEntity
  8
Sketch098
100
AcDbLine
 10
-75.9448
 20
32.4519
 30
0
 11
-77.4483
 21
32.9991
 31
0
  0
ARC
  5
A56
330
A02
100
AcDbEntity
  8
Sketch098
100
AcDbCircle
 10
-74.8503
 20
35.4589
 30
0
 40
3.2
100
AcDbArc
 50
-110
 51
-20
  0
LINE
  5
A57
330
A02
100
AcDbEntity
  8
Sketch098
100
AcDbLine
 10
-64.007
 20
55.8945
 30
0
 11
-71.8433
 21
34.3645
 31
0
  0
ARC
  5
A58
330
A02
100
AcDbEntity
  8
Sketch098
100
AcDbCircle
 10
-61
 20
54.8
 30
0
 40
3.2
100
AcDbArc
 50
90
 51
160
  0
LINE
  5
A59
330
A02
100
AcDbEntity
  8
Sketch098
100
AcDbLine
 10
-47.9948
 20
58
 30
0
 11
-61
 21
58
 31
0
  0
ARC
  5
A5A
330
A02
100
AcDbEntity
  8
Sketch098
100
AcDbCircle
 10
-47.9948
 20
56.4311
 30
0
 40
1.56893
100
AcDbArc
 50
-20
 51
90
  0
LINE
  5
A5B
330
A02
100
AcDbEntity
  8
Sketch098
100
AcDbLine
 10
-53.3608
 20
37.1006
 30
0
 11
-46.5204
 21
55.8945
 31
0
  0
ARC
  5
A5C
330
A02
100
AcDbEntity
  8
Sketch098
100
AcDbCircle
 10
-50.3538
 20
36.0061
 30
0
 40
3.2
100
AcDbArc
 50
160
 51
-110
  0
LINE
  5
A5D
330
A02
100
AcDbEntity
  8
Sketch098
100
AcDbLine
 10
-49.9448
 20
32.4519
 30
0
 11
-51.4483
 21
32.9991
 31
0
  0
ARC
  5
A5E
330
A02
100
AcDbEntity
  8
Sketch098
100
AcDbCircle
 10
-48.8503
 20
35.4589
 30
0
 40
3.2
100
AcDbArc
 50
-110
 51
-20
  0
LINE
  5
A5F
330
A02
100
AcDbEntity
  8
Sketch098
100
AcDbLine
 10
-38.007
 20
55.8945
 30
0
 11
-45.8433
 21
34.3645
 31
0
  0
ARC
  5
A60
330
A02
100
AcDbEntity
  8
Sketch098
100
AcDbCircle
 10
-35
 20
54.8
 30
0
 40
3.2
100
AcDbArc
 50
90
 51
160
  0
LINE
  5
A61
330
A02
100
AcDbEntity
  8
Sketch098
100
AcDbLine
 10
-21.9948
 20
58
 30
0
 11
-35
 21
58
 31
0
  0
ARC
  5
A62
330
A02
100
AcDbEntity
  8
Sketch098
100
AcDbCircle
 10
-21.9948
 20
56.4311
 30
0
 40
1.56893
100
AcDbArc
 50
-20
 51
90
  0
LINE
  5
A63
330
A02
100
AcDbEntity
  8
Sketch098
100
AcDbLine
 10
-27.3608
 20
37.1006
 30
0
 11
-20.5204
 21
55.8945
 31
0
  0
ARC
  5
A64
330
A02
100
AcDbEntity
  8
Sketch098
100
AcDbCircle
 10
-24.3538
 20
36.0061
 30
0
 40
3.2
100
AcDbArc
 50
160
 51
-110
  0
LINE
  5
A65
330
A02
100
AcDbEntity
  8
Sketch098
100
AcDbLine
 10
-23.9448
 20
32.4519
 30
0
 11
-25.4483
 21
32.9991
 31
0
  0
ARC
  5
A66
330
A02
100
AcDbEntity
  8
Sketch098
100
AcDbCircle
 10
-22.8503
 20
35.4589
 30
0
 40
3.2
100
AcDbArc
 50
-110
 51
-20
  0
LINE
  5
A67
330
A02
100
AcDbEntity
  8
Sketch098
100
AcDbLine
 10
-12.007
 20
55.8945
 30
0
 11
-19.8433
 21
34.3645
 31
0
  0
ARC
  5
A68
330
A02
100
AcDbEntity
  8
Sketch098
100
AcDbCircle
 10
-9
 20
54.8
 30
0
 40
3.2
100
AcDbArc
 50
90
 51
160
  0
LINE
  5
A69
330
A02
100
AcDbEntity
  8
Sketch098
100
AcDbLine
 10
4.00525
 20
58
 30
0
 11
-9
 21
58
 31
0
  0
ARC
  5
A6A
330
A02
100
AcDbEntity
  8
Sketch098
100
AcDbCircle
 10
4.00525
 20
56.4311
 30
0
 40
1.56893
100
AcDbArc
 50
-20
 51
90
  0
LINE
  5
A6B
330
A02
100
AcDbEntity
  8
Sketch098
100
AcDbLine
 10
-1.36084
 20
37.1006
 30
0
 11
5.47956
 21
55.8945
 31
0
  0
ARC
  5
A6C
330
A02
100
AcDbEntity
  8
Sketch098
100
AcDbCircle
 10
1.64617
 20
36.0061
 30
0
 40
3.2
100
AcDbArc
 50
160
 51
-110
  0
LINE
  5
A6D
330
A02
100
AcDbEntity
  8
Sketch098
100
AcDbLine
 10
2.05522
 20
32.4519
 30
0
 11
0.55171
 21
32.9991
 31
0
  0
ARC
  5
A6E
330
A02
100
AcDbEntity
  8
Sketch098
100
AcDbCircle
 10
3.14968
 20
35.4589
 30
0
 40
3.2
100
AcDbArc
 50
-110
 51
-20
  0
LINE
  5
A6F
330
A02
100
AcDbEntity
  8
Sketch098
100
AcDbLine
 10
13.993
 20
55.8945
 30
0
 11
6.1567
 21
34.3645
 31
0
  0
ARC
  5
A70
330
A02
100
AcDbEntity
  8
Sketch098
100
AcDbCircle
 10
17
 20
54.8
 30
0
 40
3.2
100
AcDbArc
 50
90
 51
160
  0
LINE
  5
A71
330
A02
100
AcDbEntity
  8
Sketch098
100
AcDbLine
 10
30.0052
 20
58
 30
0
 11
17
 21
58
 31
0
  0
ARC
  5
A72
330
A02
100
AcDbEntity
  8
Sketch098
100
AcDbCircle
 10
30.0052
 20
56.4311
 30
0
 40
1.56893
100
AcDbArc
 50
-20
 51
90
  0
LINE
  5
A73
330
A02
100
AcDbEntity
  8
Sketch098
100
AcDbLine
 10
24.6392
 20
37.1006
 30
0
 11
31.4796
 21
55.8945
 31
0
  0
ARC
  5
A74
330
A02
100
AcDbEntity
  8
Sketch098
100
AcDbCircle
 10
27.6462
 20
36.0061
 30
0
 40
3.2
100
AcDbArc
 50
160
 51
-110
  0
LINE
  5
A75
330
A02
100
AcDbEntity
  8
Sketch098
100
AcDbLine
 10
28.0552
 20
32.4519
 30
0
 11
26.5517
 21
32.9991
 31
0
  0
ARC
  5
A76
330
A02
100
AcDbEntity
  8
Sketch098
100
AcDbCircle
 10
29.1497
 20
35.4589
 30
0
 40
3.2
100
AcDbArc
 50
-110
 51
-20
  0
LINE
  5
A77
330
A02
100
AcDbEntity
  8
Sketch098
100
AcDbLine
 10
39.993
 20
55.8945
 30
0
 11
32.1567
 21
34.3645
 31
0
  0
ARC
  5
A78
330
A02
100
AcDbEntity
  8
Sketch098
100
AcDbCircle
 10
43
 20
54.8
 30
0
 40
3.2
100
AcDbArc
 50
90
 51
160
  0
LINE
  5
A79
330
A02
100
AcDbEntity
  8
Sketch098
100
AcDbLine
 10
56.0052
 20
58
 30
0
 11
43
 21
58
 31
0
  0
ARC
  5
A7A
330
A02
100
AcDbEntity
  8
Sketch098
100
AcDbCircle
 10
56.0052
 20
56.4311
 30
0
 40
1.56893
100
AcDbArc
 50
-20
 51
90
  0
LINE
  5
A7B
330
A02
100
AcDbEntity
  8
Sketch098
100
AcDbLine
 10
50.6392
 20
37.1006
 30
0
 11
57.4796
 21
55.8945
 31
0
  0
ARC
  5
A7C
330
A02
100
AcDbEntity
  8
Sketch098
100
AcDbCircle
 10
53.6462
 20
36.0061
 30
0
 40
3.2
100
AcDbArc
 50
160
 51
-110
  0
LINE
  5
A7D
330
A02
100
AcDbEntity
  8
Sketch098
100
AcDbLine
 10
54.0552
 20
32.4519
 30
0
 11
52.5517
 21
32.9991
 31
0
  0
ARC
  5
A7E
330
A02
100
AcDbEntity
  8
Sketch098
100
AcDbCircle
 10
55.1497
 20
35.4589
 30
0
 40
3.2
100
AcDbArc
 50
-110
 51
-20
  0
LINE
  5
A7F
330
A02
100
AcDbEntity
  8
Sketch098
100
AcDbLine
 10
65.993
 20
55.8945
 30
0
 11
58.1567
 21
34.3645
 31
0
  0
ARC
  5
A80
330
A02
100
AcDbEntity
  8
Sketch098
100
AcDbCircle
 10
69
 20
54.8
 30
0
 40
3.2
100
AcDbArc
 50
90
 51
160
  0
LINE
  5
A81
330
A02
100
AcDbEntity
  8
Sketch098
100
AcDbLine
 10
70
 20
58
 30
0
 11
69
 21
58
 31
0
  0
ARC
  5
A82
330
A02
100
AcDbEntity
  8
Sketch098
100
AcDbCircle
 10
70
 20
53
 30
0
 40
5
100
AcDbArc
 50
0
 51
90
  0
LINE
  5
A83
330
A02
100
AcDbEntity
  8
Sketch098
100
AcDbLine
 10
75
 20
5.1
 30
0
 11
75
 21
53
 31
0
  0
ARC
  5
A84
330
A02
100
AcDbEntity
  8
Sketch098
100
AcDbCircle
 10
70
 20
5.1
 30
0
 40
5
100
AcDbArc
 50
-90
 51
2.03555e-14
  0
LINE
  5
A85
330
A02
100
AcDbEntity
  8
Sketch098
100
AcDbLine
 10
36.1
 20
0.1
 30
0
 11
70
 21
0.1
 31
0
  0
LINE
  5
A86
330
A02
100
AcDbEntity
  8
Sketch098
100
AcDbLine
 10
36.1
 20
1.1
 30
0
 11
36.1
 21
0.1
 31
0
  0
CIRCLE
  5
A87
330
A02
100
AcDbEntity
  8
Sketch098
100
AcDbCircle
 10
55
 20
8
 40
1
  0
LINE
  5
A88
330
A02
100
AcDbEntity
  8
Sketch098
100
AcDbLine
 10
60
 20
23
 30
0
 11
60
 21
15
 31
0
  0
LINE
  5
A89
330
A02
100
AcDbEntity
  8
Sketch098
100
AcDbLine
 10
60
 20
15
 30
0
 11
70
 21
15
 31
0
  0
LINE
  5
A8A
330
A02
100
AcDbEntity
  8
Sketch098
100
AcDbLine
 10
70
 20
15
 30
0
 11
70
 21
23
 31
0
  0
LINE
  5
A8B
330
A02
100
AcDbEntity
  8
Sketch098
100
AcDbLine
 10
70
 20
23
 30
0
 11
60
 21
23
 31
0
  0
ENDSEC
  0
SECTION
  2
OBJECTS
  0
DICTIONARY
  5
F000
330
0
100
AcDbDictionary
  3
ACAD_GROUP
350
F001
  0
DICTIONARY
  5
F001
330
F000
100
AcDbDictionary
  0
ENDSEC
  0
EOF