999
FreeCAD v2023.1102 14555 (Git shallow)
  0
SECTION
  2
HEADER
  9
$ACADVER
  1
AC1014
  9
$ACADMAINTVER
 70
     9
  9
$DWGCODEPAGE
  3
ANSI_1252
  9
$TEXTSTYLE
  7
STANDARD
  9
$DIMSTYLE
  2
STANDARD
  9
$DIMTXSTY
  7
STANDARD
  9
$CMLSTYLE
  2
STANDARD
  9
$LUNITS
 70
2
  9
$INSUNITS
 70
4
  9
$PEXTMAX
 10
50
 20
50
 30
50
  9
$PEXTMIN
 10
0
 20
0
 30
0
  9
$HANDSEED
  5
FFFF
  0
ENDSEC
  0
SECTION
  2
CLASSES
  0
CLASS
  1
ACDBDICTIONARYWDFLT
  2
AcDbDictionaryWithDefault
  3
ObjectDBX Classes
 90
        0
280
     0
281
     0
  0
CLASS
  1
XRECORD
  2
AcDbXrecord
  3
ObjectDBX Classes
 90
        0
280
     0
281
     0
  0
CLASS
  1
LWPOLYLINE
  2
AcDbPolyline
  3
ObjectDBX Classes
 90
        0
280
     0
281
     1
  0
ENDSEC
  0
SECTION
  2
TABLES
  0
TABLE
  2
VPORT
  5
20
330
0
100
AcDbSymbolTable
 70
     1
  0
VPORT
  5
21
330
20
100
AcDbSymbolTableRecord
100
AcDbViewportTableRecord
  2
*ACTIVE
 70
     0
  0
ENDTAB
  0
TABLE
  2
LTYPE
  5
22
330
0
100
AcDbSymbolTable
 70
     1
  0
LTYPE
  5
23
330
21
100
AcDbSymbolTableRecord
100
AcDbLinetypeTableRecord
  2
BYBLOCK
 70
     0
  3

 72
    65
 73
     0
 40
0.0
  0
LTYPE
  5
24
330
21
100
AcDbSymbolTableRecord
100
AcDbLinetypeTableRecord
  2
BYLAYER
 70
     0
  3

 72
    65
 73
     0
 40
0.0
  0
LTYPE
  5
25
330
21
100
AcDbSymbolTableRecord
100
AcDbLinetypeTableRecord
  2
CONTINUOUS
 70
     0
  3
Solid line
 72
    65
 73
     0
 40
0.0
  0
ENDTAB
  0
TABLE
  2
LAYER
  5
A94
330
0
100
AcDbSymbolTable
 70
3
  0
LAYER
  5
A95
330
A94
100
AcDbSymbolTableRecord
100
AcDbLayerTableRecord
  2
0
 70
   0
 62
   7
  6
CONTINUOUS
  0
LAYER
  5
A96
330
A94
100
AcDbSymbolTableRecord
100
AcDbLayerTableRecord
  2
none
 70
    0
 62
    7
  6
CONTINUOUS
  0
LAYER
  5
A97
330
A94
100
AcDbSymbolTableRecord
100
AcDbLayerTableRecord
  2
Sketch015
 70
    0
 62
    7
  6
CONTINUOUS
  0
ENDTAB
  0
TABLE
  2
STYLE
  5
70
330
0
100
AcDbSymbolTable
 70
     2
  0
STYLE
  5
71
330
70
100
AcDbSymbolTableRecord
100
AcDbTextStyleTableRecord
  2
STANDARD
 70
     0
 40
0.0
 41
1.0
 50
0.0
 71
     0
 42
2.5
  3
arial.ttf
  4

  0
STYLE
  5
72
330
70
100
AcDbSymbolTableRecord
100
AcDbTextStyleTableRecord
  2
ANNOTATIVE
 70
     0
 40
0.0
 41
1.0
 50
0.0
 71
     0
 42
2.5
  3
arial.ttf
  4

  0
ENDTAB
  0
TABLE
  2
VIEW
  5
73
330
0
100
AcDbSymbolTable
 70
     0
  0
ENDTAB
  0
TABLE
  2
UCS
  5
74
330
0
100
AcDbSymbolTable
 70
     0
  0
ENDTAB
  0
TABLE
  2
APPID
  5
75
330
0
100
AcDbSymbolTable
 70
     2
  0
APPID
  5
76
330
75
100
AcDbSymbolTableRecord
100
AcDbRegAppTableRecord
  2
ACAD
 70
     0
  0
APPID
  5
77
330
75
100
AcDbSymbolTableRecord
100
AcDbRegAppTableRecord
  2
ACADANNOTATIVE
 70
     0
  0
ENDTAB
  0
TABLE
  2
DIMSTYLE
  5
78
330
0
100
AcDbSymbolTable
 70
     2
  0
DIMSTYLE
105
79
330
78
100
AcDbSymbolTableRecord
100
AcDbDimStyleTableRecord
  2
STANDARD
 70
     0
  3

  4

  5

  6

  7

 40
0.0
 41
2.5
 42
0.625
 43
3.75
 44
1.25
 45
0.0
 46
0.0
 47
0.0
 48
0.0
140
2.5
141
2.5
142
0.0
143
0.03937007874016
144
1.0
145
0.0
146
1.0
147
0.625
 71
     0
 72
     0
 73
     0
 74
     0
 75
     0
 76
     0
 77
     1
 78
     8
170
     0
171
     3
172
     1
173
     0
174
     0
175
     0
176
     0
177
     0
178
     0
270
     2
271
     2
272
     2
273
     2
274
     3
340
71
275
     0
280
     0
281
     0
282
     0
283
     0
284
     8
285
     0
286
     0
287
     3
288
     0
  0
ENDTAB
  0
TABLE
  2
BLOCK_RECORD
  5
A01
330
0
100
AcDbSymbolTable
  70
5
  0
BLOCK_RECORD
  5
A02
330
A01
100
AcDbSymbolTableRecord
100
AcDbBlockTableRecord
  2
*MODEL_SPACE
  0
BLOCK_RECORD
  5
A03
330
A01
100
AcDbSymbolTableRecord
100
AcDbBlockTableRecord
  2
*PAPER_SPACE
  0
ENDTAB
  0
ENDSEC
  0
SECTION
  2
BLOCKS
  0
BLOCK
  5
A04
330
A02
100
AcDbEntity
  8
0
100
AcDbBlockBegin
  2
*MODEL_SPACE
 70
   0
 10
0
 20
0
 30
0
  3
*MODEL_SPACE
  1
 
  0
ENDBLK
  5
A05
330
A02
100
AcDbEntity
  8
0
100
AcDbBlockEnd
  0
BLOCK
  5
A06
330
A03
100
AcDbEntity
 67
1
  8
0
100
AcDbBlockBegin
  2
*PAPER_SPACE
 70
   0
 10
0
 20
0
 30
0
  3
*PAPER_SPACE
  1
 
  0
ENDBLK
  5
A07
330
A03
100
AcDbEntity
 67
    1
  8
0
100
AcDbBlockEnd
  0
ENDSEC
  0
SECTION
  2
ENTITIES
  0
ARC
  5
A08
330
A02
100
AcDbEntity
  8
Sketch015
100
AcDbCircle
 10
47.1716
 20
14
 30
0
 40
3
100
AcDbArc
 50
-109.471
 51
160.529
  0
LINE
  5
A09
330
A02
100
AcDbEntity
  8
Sketch015
100
AcDbLine
 10
44.3431
 20
15
 30
0
 11
-54.1305
 21
15
 31
0
  0
LINE
  5
A0A
330
A02
100
AcDbEntity
  8
Sketch015
100
AcDbLine
 10
-54.1305
 20
15
 30
0
 11
-54.1305
 21
23
 31
0
  0
LINE
  5
A0B
330
A02
100
AcDbEntity
  8
Sketch015
100
AcDbLine
 10
-54.1305
 20
23
 30
0
 11
-74.1305
 21
23
 31
0
  0
LINE
  5
A0C
330
A02
100
AcDbEntity
  8
Sketch015
100
AcDbLine
 10
-74.1305
 20
23
 30
0
 11
-74.1305
 21
15
 31
0
  0
LINE
  5
A0D
330
A02
100
AcDbEntity
  8
Sketch015
100
AcDbLine
 10
-74.1305
 20
15
 30
0
 11
-167.881
 21
15
 31
0
  0
LINE
  5
A0E
330
A02
100
AcDbEntity
  8
Sketch015
100
AcDbLine
 10
-167.881
 20
15
 30
0
 11
-167.881
 21
23
 31
0
  0
LINE
  5
A0F
330
A02
100
AcDbEntity
  8
Sketch015
100
AcDbLine
 10
-167.881
 20
23
 30
0
 11
-187.881
 21
23
 31
0
  0
LINE
  5
A10
330
A02
100
AcDbEntity
  8
Sketch015
100
AcDbLine
 10
-187.881
 20
23
 30
0
 11
-187.881
 21
15
 31
0
  0
LINE
  5
A11
330
A02
100
AcDbEntity
  8
Sketch015
100
AcDbLine
 10
-187.881
 20
15
 30
0
 11
-317.011
 21
15
 31
0
  0
ARC
  5
A12
330
A02
100
AcDbEntity
  8
Sketch015
100
AcDbCircle
 10
-317.011
 20
20
 30
0
 40
5
100
AcDbArc
 50
160
 51
-90
  0
LINE
  5
A13
330
A02
100
AcDbEntity
  8
Sketch015
100
AcDbLine
 10
-321.709
 20
21.7101
 30
0
 11
-309.698
 21
54.7101
 31
0
  0
ARC
  5
A14
330
A02
100
AcDbEntity
  8
Sketch015
100
AcDbCircle
 10
-305
 20
53
 30
0
 40
5
100
AcDbArc
 50
90
 51
160
  0
LINE
  5
A15
330
A02
100
AcDbEntity
  8
Sketch015
100
AcDbLine
 10
-295.843
 20
58
 30
0
 11
-305
 21
58
 31
0
  0
ARC
  5
A16
330
A02
100
AcDbEntity
  8
Sketch015
100
AcDbCircle
 10
-295.843
 20
56.5291
 30
0
 40
1.47087
100
AcDbArc
 50
-20
 51
90
  0
LINE
  5
A17
330
A02
100
AcDbEntity
  8
Sketch015
100
AcDbLine
 10
-301.301
 20
37.2322
 30
0
 11
-294.461
 21
56.0261
 31
0
  0
ARC
  5
A18
330
A02
100
AcDbEntity
  8
Sketch015
100
AcDbCircle
 10
-298.482
 20
36.2061
 30
0
 40
3
100
AcDbArc
 50
160
 51
-110
  0
LINE
  5
A19
330
A02
100
AcDbEntity
  8
Sketch015
100
AcDbLine
 10
-295.749
 20
32.019
 30
0
 11
-299.508
 21
33.3871
 31
0
  0
ARC
  5
A1A
330
A02
100
AcDbEntity
  8
Sketch015
100
AcDbCircle
 10
-294.723
 20
34.8381
 30
0
 40
3
100
AcDbArc
 50
-110
 51
-20
  0
LINE
  5
A1B
330
A02
100
AcDbEntity
  8
Sketch015
100
AcDbLine
 10
-283.819
 20
56.0261
 30
0
 11
-291.904
 21
33.812
 31
0
  0
ARC
  5
A1C
330
A02
100
AcDbEntity
  8
Sketch015
100
AcDbCircle
 10
-281
 20
55
 30
0
 40
3
100
AcDbArc
 50
90
 51
160
  0
LINE
  5
A1D
330
A02
100
AcDbEntity
  8
Sketch015
100
AcDbLine
 10
-270.843
 20
58
 30
0
 11
-281
 21
58
 31
0
  0
ARC
  5
A1E
330
A02
100
AcDbEntity
  8
Sketch015
100
AcDbCircle
 10
-270.843
 20
56.5291
 30
0
 40
1.47087
100
AcDbArc
 50
-20
 51
90
  0
LINE
  5
A1F
330
A02
100
AcDbEntity
  8
Sketch015
100
AcDbLine
 10
-276.301
 20
37.2322
 30
0
 11
-269.461
 21
56.0261
 31
0
  0
ARC
  5
A20
330
A02
100
AcDbEntity
  8
Sketch015
100
AcDbCircle
 10
-273.482
 20
36.2061
 30
0
 40
3
100
AcDbArc
 50
160
 51
-110
  0
LINE
  5
A21
330
A02
100
AcDbEntity
  8
Sketch015
100
AcDbLine
 10
-270.749
 20
32.019
 30
0
 11
-274.508
 21
33.3871
 31
0
  0
ARC
  5
A22
330
A02
100
AcDbEntity
  8
Sketch015
100
AcDbCircle
 10
-269.723
 20
34.8381
 30
0
 40
3
100
AcDbArc
 50
-110
 51
-20
  0
LINE
  5
A23
330
A02
100
AcDbEntity
  8
Sketch015
100
AcDbLine
 10
-258.819
 20
56.0261
 30
0
 11
-266.904
 21
33.812
 31
0
  0
ARC
  5
A24
330
A02
100
AcDbEntity
  8
Sketch015
100
AcDbCircle
 10
-256
 20
55
 30
0
 40
3
100
AcDbArc
 50
90
 51
160
  0
LINE
  5
A25
330
A02
100
AcDbEntity
  8
Sketch015
100
AcDbLine
 10
-245.843
 20
58
 30
0
 11
-256
 21
58
 31
0
  0
ARC
  5
A26
330
A02
100
AcDbEntity
  8
Sketch015
100
AcDbCircle
 10
-245.843
 20
56.5291
 30
0
 40
1.47087
100
AcDbArc
 50
-20
 51
90
  0
LINE
  5
A27
330
A02
100
AcDbEntity
  8
Sketch015
100
AcDbLine
 10
-251.301
 20
37.2322
 30
0
 11
-244.461
 21
56.0261
 31
0
  0
ARC
  5
A28
330
A02
100
AcDbEntity
  8
Sketch015
100
AcDbCircle
 10
-248.482
 20
36.2061
 30
0
 40
3
100
AcDbArc
 50
160
 51
-110
  0
LINE
  5
A29
330
A02
100
AcDbEntity
  8
Sketch015
100
AcDbLine
 10
-245.749
 20
32.019
 30
0
 11
-249.508
 21
33.3871
 31
0
  0
ARC
  5
A2A
330
A02
100
AcDbEntity
  8
Sketch015
100
AcDbCircle
 10
-244.723
 20
34.8381
 30
0
 40
3
100
AcDbArc
 50
-110
 51
-20
  0
LINE
  5
A2B
330
A02
100
AcDbEntity
  8
Sketch015
100
AcDbLine
 10
-233.819
 20
56.0261
 30
0
 11
-241.904
 21
33.812
 31
0
  0
ARC
  5
A2C
330
A02
100
AcDbEntity
  8
Sketch015
100
AcDbCircle
 10
-231
 20
55
 30
0
 40
3
100
AcDbArc
 50
90
 51
160
  0
LINE
  5
A2D
330
A02
100
AcDbEntity
  8
Sketch015
100
AcDbLine
 10
-220.843
 20
58
 30
0
 11
-231
 21
58
 31
0
  0
ARC
  5
A2E
330
A02
100
AcDbEntity
  8
Sketch015
100
AcDbCircle
 10
-220.843
 20
56.5291
 30
0
 40
1.47087
100
AcDbArc
 50
-20
 51
90
  0
LINE
  5
A2F
330
A02
100
AcDbEntity
  8
Sketch015
100
AcDbLine
 10
-226.301
 20
37.2322
 30
0
 11
-219.461
 21
56.0261
 31
0
  0
ARC
  5
A30
330
A02
100
AcDbEntity
  8
Sketch015
100
AcDbCircle
 10
-223.482
 20
36.2061
 30
0
 40
3
100
AcDbArc
 50
160
 51
-110
  0
LINE
  5
A31
330
A02
100
AcDbEntity
  8
Sketch015
100
AcDbLine
 10
-220.749
 20
32.019
 30
0
 11
-224.508
 21
33.3871
 31
0
  0
ARC
  5
A32
330
A02
100
AcDbEntity
  8
Sketch015
100
AcDbCircle
 10
-219.723
 20
34.8381
 30
0
 40
3
100
AcDbArc
 50
-110
 51
-20
  0
LINE
  5
A33
330
A02
100
AcDbEntity
  8
Sketch015
100
AcDbLine
 10
-208.819
 20
56.0261
 30
0
 11
-216.904
 21
33.812
 31
0
  0
ARC
  5
A34
330
A02
100
AcDbEntity
  8
Sketch015
100
AcDbCircle
 10
-206
 20
55
 30
0
 40
3
100
AcDbArc
 50
90
 51
160
  0
LINE
  5
A35
330
A02
100
AcDbEntity
  8
Sketch015
100
AcDbLine
 10
-195.843
 20
58
 30
0
 11
-206
 21
58
 31
0
  0
ARC
  5
A36
330
A02
100
AcDbEntity
  8
Sketch015
100
AcDbCircle
 10
-195.843
 20
56.5291
 30
0
 40
1.47087
100
AcDbArc
 50
-20
 51
90
  0
LINE
  5
A37
330
A02
100
AcDbEntity
  8
Sketch015
100
AcDbLine
 10
-201.301
 20
37.2322
 30
0
 11
-194.461
 21
56.0261
 31
0
  0
ARC
  5
A38
330
A02
100
AcDbEntity
  8
Sketch015
100
AcDbCircle
 10
-198.482
 20
36.2061
 30
0
 40
3
100
AcDbArc
 50
160
 51
-110
  0
LINE
  5
A39
330
A02
100
AcDbEntity
  8
Sketch015
100
AcDbLine
 10
-195.749
 20
32.019
 30
0
 11
-199.508
 21
33.3871
 31
0
  0
ARC
  5
A3A
330
A02
100
AcDbEntity
  8
Sketch015
100
AcDbCircle
 10
-194.723
 20
34.8381
 30
0
 40
3
100
AcDbArc
 50
-110
 51
-20
  0
LINE
  5
A3B
330
A02
100
AcDbEntity
  8
Sketch015
100
AcDbLine
 10
-183.819
 20
56.0261
 30
0
 11
-191.904
 21
33.812
 31
0
  0
ARC
  5
A3C
330
A02
100
AcDbEntity
  8
Sketch015
100
AcDbCircle
 10
-181
 20
55
 30
0
 40
3
100
AcDbArc
 50
90
 51
160
  0
LINE
  5
A3D
330
A02
100
AcDbEntity
  8
Sketch015
100
AcDbLine
 10
-170.843
 20
58
 30
0
 11
-181
 21
58
 31
0
  0
ARC
  5
A3E
330
A02
100
AcDbEntity
  8
Sketch015
100
AcDbCircle
 10
-170.843
 20
56.5291
 30
0
 40
1.47087
100
AcDbArc
 50
-20
 51
90
  0
LINE
  5
A3F
330
A02
100
AcDbEntity
  8
Sketch015
100
AcDbLine
 10
-176.301
 20
37.2322
 30
0
 11
-169.461
 21
56.0261
 31
0
  0
ARC
  5
A40
330
A02
100
AcDbEntity
  8
Sketch015
100
AcDbCircle
 10
-173.482
 20
36.2061
 30
0
 40
3
100
AcDbArc
 50
160
 51
-110
  0
LINE
  5
A41
330
A02
100
AcDbEntity
  8
Sketch015
100
AcDbLine
 10
-170.749
 20
32.019
 30
0
 11
-174.508
 21
33.3871
 31
0
  0
ARC
  5
A42
330
A02
100
AcDbEntity
  8
Sketch015
100
AcDbCircle
 10
-169.723
 20
34.8381
 30
0
 40
3
100
AcDbArc
 50
-110
 51
-20
  0
LINE
  5
A43
330
A02
100
AcDbEntity
  8
Sketch015
100
AcDbLine
 10
-158.819
 20
56.0261
 30
0
 11
-166.904
 21
33.812
 31
0
  0
ARC
  5
A44
330
A02
100
AcDbEntity
  8
Sketch015
100
AcDbCircle
 10
-156
 20
55
 30
0
 40
3
100
AcDbArc
 50
90
 51
160
  0
LINE
  5
A45
330
A02
100
AcDbEntity
  8
Sketch015
100
AcDbLine
 10
-145.843
 20
58
 30
0
 11
-156
 21
58
 31
0
  0
ARC
  5
A46
330
A02
100
AcDbEntity
  8
Sketch015
100
AcDbCircle
 10
-145.843
 20
56.5291
 30
0
 40
1.47087
100
AcDbArc
 50
-20
 51
90
  0
LINE
  5
A47
330
A02
100
AcDbEntity
  8
Sketch015
100
AcDbLine
 10
-151.301
 20
37.2322
 30
0
 11
-144.461
 21
56.0261
 31
0
  0
ARC
  5
A48
330
A02
100
AcDbEntity
  8
Sketch015
100
AcDbCircle
 10
-148.482
 20
36.2061
 30
0
 40
3
100
AcDbArc
 50
160
 51
-110
  0
LINE
  5
A49
330
A02
100
AcDbEntity
  8
Sketch015
100
AcDbLine
 10
-145.749
 20
32.019
 30
0
 11
-149.508
 21
33.3871
 31
0
  0
ARC
  5
A4A
330
A02
100
AcDbEntity
  8
Sketch015
100
AcDbCircle
 10
-144.723
 20
34.8381
 30
0
 40
3
100
AcDbArc
 50
-110
 51
-20
  0
LINE
  5
A4B
330
A02
100
AcDbEntity
  8
Sketch015
100
AcDbLine
 10
-133.819
 20
56.0261
 30
0
 11
-141.904
 21
33.812
 31
0
  0
ARC
  5
A4C
330
A02
100
AcDbEntity
  8
Sketch015
100
AcDbCircle
 10
-131
 20
55
 30
0
 40
3
100
AcDbArc
 50
90
 51
160
  0
LINE
  5
A4D
330
A02
100
AcDbEntity
  8
Sketch015
100
AcDbLine
 10
-120.843
 20
58
 30
0
 11
-131
 21
58
 31
0
  0
ARC
  5
A4E
330
A02
100
AcDbEntity
  8
Sketch015
100
AcDbCircle
 10
-120.843
 20
56.5291
 30
0
 40
1.47087
100
AcDbArc
 50
-20
 51
90
  0
LINE
  5
A4F
330
A02
100
AcDbEntity
  8
Sketch015
100
AcDbLine
 10
-126.301
 20
37.2322
 30
0
 11
-119.461
 21
56.0261
 31
0
  0
ARC
  5
A50
330
A02
100
AcDbEntity
  8
Sketch015
100
AcDbCircle
 10
-123.482
 20
36.2061
 30
0
 40
3
100
AcDbArc
 50
160
 51
-110
  0
LINE
  5
A51
330
A02
100
AcDbEntity
  8
Sketch015
100
AcDbLine
 10
-120.749
 20
32.019
 30
0
 11
-124.508
 21
33.3871
 31
0
  0
ARC
  5
A52
330
A02
100
AcDbEntity
  8
Sketch015
100
AcDbCircle
 10
-119.723
 20
34.8381
 30
0
 40
3
100
AcDbArc
 50
-110
 51
-20
  0
LINE
  5
A53
330
A02
100
AcDbEntity
  8
Sketch015
100
AcDbLine
 10
-108.819
 20
56.0261
 30
0
 11
-116.904
 21
33.812
 31
0
  0
ARC
  5
A54
330
A02
100
AcDbEntity
  8
Sketch015
100
AcDbCircle
 10
-106
 20
55
 30
0
 40
3
100
AcDbArc
 50
90
 51
160
  0
LINE
  5
A55
330
A02
100
AcDbEntity
  8
Sketch015
100
AcDbLine
 10
-95.843
 20
58
 30
0
 11
-106
 21
58
 31
0
  0
ARC
  5
A56
330
A02
100
AcDbEntity
  8
Sketch015
100
AcDbCircle
 10
-95.843
 20
56.5291
 30
0
 40
1.47087
100
AcDbArc
 50
-20
 51
90
  0
LINE
  5
A57
330
A02
100
AcDbEntity
  8
Sketch015
100
AcDbLine
 10
-101.301
 20
37.2322
 30
0
 11
-94.4609
 21
56.0261
 31
0
  0
ARC
  5
A58
330
A02
100
AcDbEntity
  8
Sketch015
100
AcDbCircle
 10
-98.4822
 20
36.2061
 30
0
 40
3
100
AcDbArc
 50
160
 51
-110
  0
LINE
  5
A59
330
A02
100
AcDbEntity
  8
Sketch015
100
AcDbLine
 10
-95.7495
 20
32.019
 30
0
 11
-99.5082
 21
33.3871
 31
0
  0
ARC
  5
A5A
330
A02
100
AcDbEntity
  8
Sketch015
100
AcDbCircle
 10
-94.7234
 20
34.8381
 30
0
 40
3
100
AcDbArc
 50
-110
 51
-20
  0
LINE
  5
A5B
330
A02
100
AcDbEntity
  8
Sketch015
100
AcDbLine
 10
-83.8191
 20
56.0261
 30
0
 11
-91.9043
 21
33.812
 31
0
  0
ARC
  5
A5C
330
A02
100
AcDbEntity
  8
Sketch015
100
AcDbCircle
 10
-81
 20
55
 30
0
 40
3
100
AcDbArc
 50
90
 51
160
  0
LINE
  5
A5D
330
A02
100
AcDbEntity
  8
Sketch015
100
AcDbLine
 10
-70.843
 20
58
 30
0
 11
-81
 21
58
 31
0
  0
ARC
  5
A5E
330
A02
100
AcDbEntity
  8
Sketch015
100
AcDbCircle
 10
-70.843
 20
56.5291
 30
0
 40
1.47087
100
AcDbArc
 50
-20
 51
90
  0
LINE
  5
A5F
330
A02
100
AcDbEntity
  8
Sketch015
100
AcDbLine
 10
-76.3013
 20
37.2322
 30
0
 11
-69.4609
 21
56.0261
 31
0
  0
ARC
  5
A60
330
A02
100
AcDbEntity
  8
Sketch015
100
AcDbCircle
 10
-73.4822
 20
36.2061
 30
0
 40
3
100
AcDbArc
 50
160
 51
-110
  0
LINE
  5
A61
330
A02
100
AcDbEntity
  8
Sketch015
100
AcDbLine
 10
-70.7495
 20
32.019
 30
0
 11
-74.5082
 21
33.3871
 31
0
  0
ARC
  5
A62
330
A02
100
AcDbEntity
  8
Sketch015
100
AcDbCircle
 10
-69.7234
 20
34.8381
 30
0
 40
3
100
AcDbArc
 50
-110
 51
-20
  0
LINE
  5
A63
330
A02
100
AcDbEntity
  8
Sketch015
100
AcDbLine
 10
-58.8191
 20
56.0261
 30
0
 11
-66.9043
 21
33.812
 31
0
  0
ARC
  5
A64
330
A02
100
AcDbEntity
  8
Sketch015
100
AcDbCircle
 10
-56
 20
55
 30
0
 40
3
100
AcDbArc
 50
90
 51
160
  0
LINE
  5
A65
330
A02
100
AcDbEntity
  8
Sketch015
100
AcDbLine
 10
-45.843
 20
58
 30
0
 11
-56
 21
58
 31
0
  0
ARC
  5
A66
330
A02
100
AcDbEntity
  8
Sketch015
100
AcDbCircle
 10
-45.843
 20
56.5291
 30
0
 40
1.47087
100
AcDbArc
 50
-20
 51
90
  0
LINE
  5
A67
330
A02
100
AcDbEntity
  8
Sketch015
100
AcDbLine
 10
-51.3013
 20
37.2322
 30
0
 11
-44.4609
 21
56.0261
 31
0
  0
ARC
  5
A68
330
A02
100
AcDbEntity
  8
Sketch015
100
AcDbCircle
 10
-48.4822
 20
36.2061
 30
0
 40
3
100
AcDbArc
 50
160
 51
-110
  0
LINE
  5
A69
330
A02
100
AcDbEntity
  8
Sketch015
100
AcDbLine
 10
-45.7495
 20
32.019
 30
0
 11
-49.5082
 21
33.3871
 31
0
  0
ARC
  5
A6A
330
A02
100
AcDbEntity
  8
Sketch015
100
AcDbCircle
 10
-44.7234
 20
34.8381
 30
0
 40
3
100
AcDbArc
 50
-110
 51
-20
  0
LINE
  5
A6B
330
A02
100
AcDbEntity
  8
Sketch015
100
AcDbLine
 10
-33.8191
 20
56.0261
 30
0
 11
-41.9043
 21
33.812
 31
0
  0
ARC
  5
A6C
330
A02
100
AcDbEntity
  8
Sketch015
100
AcDbCircle
 10
-31
 20
55
 30
0
 40
3
100
AcDbArc
 50
90
 51
160
  0
LINE
  5
A6D
330
A02
100
AcDbEntity
  8
Sketch015
100
AcDbLine
 10
-20.843
 20
58
 30
0
 11
-31
 21
58
 31
0
  0
ARC
  5
A6E
330
A02
100
AcDbEntity
  8
Sketch015
100
AcDbCircle
 10
-20.843
 20
56.5291
 30
0
 40
1.47087
100
AcDbArc
 50
-20
 51
90
  0
LINE
  5
A6F
330
A02
100
AcDbEntity
  8
Sketch015
100
AcDbLine
 10
-26.3013
 20
37.2322
 30
0
 11
-19.4609
 21
56.0261
 31
0
  0
ARC
  5
A70
330
A02
100
AcDbEntity
  8
Sketch015
100
AcDbCircle
 10
-23.4822
 20
36.2061
 30
0
 40
3
100
AcDbArc
 50
160
 51
-110
  0
LINE
  5
A71
330
A02
100
AcDbEntity
  8
Sketch015
100
AcDbLine
 10
-20.7495
 20
32.019
 30
0
 11
-24.5082
 21
33.3871
 31
0
  0
ARC
  5
A72
330
A02
100
AcDbEntity
  8
Sketch015
100
AcDbCircle
 10
-19.7234
 20
34.8381
 30
0
 40
3
100
AcDbArc
 50
-110
 51
-20
  0
LINE
  5
A73
330
A02
100
AcDbEntity
  8
Sketch015
100
AcDbLine
 10
-8.81908
 20
56.0261
 30
0
 11
-16.9043
 21
33.812
 31
0
  0
ARC
  5
A74
330
A02
100
AcDbEntity
  8
Sketch015
100
AcDbCircle
 10
-6
 20
55
 30
0
 40
3
100
AcDbArc
 50
90
 51
160
  0
LINE
  5
A75
330
A02
100
AcDbEntity
  8
Sketch015
100
AcDbLine
 10
4.15698
 20
58
 30
0
 11
-6
 21
58
 31
0
  0
ARC
  5
A76
330
A02
100
AcDbEntity
  8
Sketch015
100
AcDbCircle
 10
4.15698
 20
56.5291
 30
0
 40
1.47087
100
AcDbArc
 50
-20
 51
90
  0
LINE
  5
A77
330
A02
100
AcDbEntity
  8
Sketch015
100
AcDbLine
 10
-1.30126
 20
37.2322
 30
0
 11
5.53914
 21
56.0261
 31
0
  0
ARC
  5
A78
330
A02
100
AcDbEntity
  8
Sketch015
100
AcDbCircle
 10
1.51782
 20
36.2061
 30
0
 40
3
100
AcDbArc
 50
160
 51
-110
  0
LINE
  5
A79
330
A02
100
AcDbEntity
  8
Sketch015
100
AcDbLine
 10
4.25053
 20
32.019
 30
0
 11
0.491759
 21
33.3871
 31
0
  0
ARC
  5
A7A
330
A02
100
AcDbEntity
  8
Sketch015
100
AcDbCircle
 10
5.27659
 20
34.8381
 30
0
 40
3
100
AcDbArc
 50
-110
 51
-20
  0
LINE
  5
A7B
330
A02
100
AcDbEntity
  8
Sketch015
100
AcDbLine
 10
16.1809
 20
56.0261
 30
0
 11
8.09567
 21
33.812
 31
0
  0
ARC
  5
A7C
330
A02
100
AcDbEntity
  8
Sketch015
100
AcDbCircle
 10
19
 20
55
 30
0
 40
3
100
AcDbArc
 50
90
 51
160
  0
LINE
  5
A7D
330
A02
100
AcDbEntity
  8
Sketch015
100
AcDbLine
 10
29.157
 20
58
 30
0
 11
19
 21
58
 31
0
  0
ARC
  5
A7E
330
A02
100
AcDbEntity
  8
Sketch015
100
AcDbCircle
 10
29.157
 20
56.5291
 30
0
 40
1.47087
100
AcDbArc
 50
-20
 51
90
  0
LINE
  5
A7F
330
A02
100
AcDbEntity
  8
Sketch015
100
AcDbLine
 10
23.6987
 20
37.2322
 30
0
 11
30.5391
 21
56.0261
 31
0
  0
ARC
  5
A80
330
A02
100
AcDbEntity
  8
Sketch015
100
AcDbCircle
 10
26.5178
 20
36.2061
 30
0
 40
3
100
AcDbArc
 50
160
 51
-110
  0
LINE
  5
A81
330
A02
100
AcDbEntity
  8
Sketch015
100
AcDbLine
 10
29.2505
 20
32.019
 30
0
 11
25.4918
 21
33.3871
 31
0
  0
ARC
  5
A82
330
A02
100
AcDbEntity
  8
Sketch015
100
AcDbCircle
 10
30.2766
 20
34.8381
 30
0
 40
3
100
AcDbArc
 50
-110
 51
-20
  0
LINE
  5
A83
330
A02
100
AcDbEntity
  8
Sketch015
100
AcDbLine
 10
41.1809
 20
56.0261
 30
0
 11
33.0957
 21
33.812
 31
0
  0
ARC
  5
A84
330
A02
100
AcDbEntity
  8
Sketch015
100
AcDbCircle
 10
44
 20
55
 30
0
 40
3
100
AcDbArc
 50
90
 51
160
  0
LINE
  5
A85
330
A02
100
AcDbEntity
  8
Sketch015
100
AcDbLine
 10
54.157
 20
58
 30
0
 11
44
 21
58
 31
0
  0
ARC
  5
A86
330
A02
100
AcDbEntity
  8
Sketch015
100
AcDbCircle
 10
54.157
 20
56.5291
 30
0
 40
1.47087
100
AcDbArc
 50
-20
 51
90
  0
LINE
  5
A87
330
A02
100
AcDbEntity
  8
Sketch015
100
AcDbLine
 10
48.6987
 20
37.2322
 30
0
 11
55.5391
 21
56.0261
 31
0
  0
ARC
  5
A88
330
A02
100
AcDbEntity
  8
Sketch015
100
AcDbCircle
 10
51.5178
 20
36.2061
 30
0
 40
3
100
AcDbArc
 50
160
 51
-110
  0
LINE
  5
A89
330
A02
100
AcDbEntity
  8
Sketch015
100
AcDbLine
 10
54.2505
 20
32.019
 30
0
 11
50.4918
 21
33.3871
 31
0
  0
ARC
  5
A8A
330
A02
100
AcDbEntity
  8
Sketch015
100
AcDbCircle
 10
55.2766
 20
34.8381
 30
0
 40
3
100
AcDbArc
 50
-110
 51
-20
  0
LINE
  5
A8B
330
A02
100
AcDbEntity
  8
Sketch015
100
AcDbLine
 10
66.1809
 20
56.0261
 30
0
 11
58.0957
 21
33.812
 31
0
  0
ARC
  5
A8C
330
A02
100
AcDbEntity
  8
Sketch015
100
AcDbCircle
 10
69
 20
55
 30
0
 40
3
100
AcDbArc
 50
90
 51
160
  0
LINE
  5
A8D
330
A02
100
AcDbEntity
  8
Sketch015
100
AcDbLine
 10
70
 20
58
 30
0
 11
69
 21
58
 31
0
  0
ARC
  5
A8E
330
A02
100
AcDbEntity
  8
Sketch015
100
AcDbCircle
 10
70
 20
53
 30
0
 40
5
100
AcDbArc
 50
0
 51
90
  0
LINE
  5
A8F
330
A02
100
AcDbEntity
  8
Sketch015
100
AcDbLine
 10
75
 20
5
 30
0
 11
75
 21
53
 31
0
  0
ARC
  5
A90
330
A02
100
AcDbEntity
  8
Sketch015
100
AcDbCircle
 10
70
 20
5
 30
0
 40
5
100
AcDbArc
 50
-90
 51
0
  0
LINE
  5
A91
330
A02
100
AcDbEntity
  8
Sketch015
100
AcDbLine
 10
36
 20
-6.21725e-15
 30
0
 11
70
 21
-1.37668e-14
 31
0
  0
LINE
  5
A92
330
A02
100
AcDbEntity
  8
Sketch015
100
AcDbLine
 10
36
 20
1
 30
0
 11
36
 21
-6.21725e-15
 31
0
  0
LINE
  5
A93
330
A02
100
AcDbEntity
  8
Sketch015
100
AcDbLine
 10
36
 20
1
 30
0
 11
46.1716
 21
11.1716
 31
0
  0
ENDSEC
  0
SECTION
  2
OBJECTS
  0
DICTIONARY
  5
F000
330
0
100
AcDbDictionary
  3
ACAD_GROUP
350
F001
  0
DICTIONARY
  5
F001
330
F000
100
AcDbDictionary
  0
ENDSEC
  0
EOF