999
FreeCAD v2024.123 14555 (Git shallow)
  0
SECTION
  2
HEADER
  9
$ACADVER
  1
AC1014
  9
$ACADMAINTVER
 70
     9
  9
$DWGCODEPAGE
  3
ANSI_1252
  9
$TEXTSTYLE
  7
STANDARD
  9
$DIMSTYLE
  2
STANDARD
  9
$DIMTXSTY
  7
STANDARD
  9
$CMLSTYLE
  2
STANDARD
  9
$LUNITS
 70
2
  9
$INSUNITS
 70
4
  9
$PEXTMAX
 10
50
 20
50
 30
50
  9
$PEXTMIN
 10
0
 20
0
 30
0
  9
$HANDSEED
  5
FFFF
  0
ENDSEC
  0
SECTION
  2
CLASSES
  0
CLASS
  1
ACDBDICTIONARYWDFLT
  2
AcDbDictionaryWithDefault
  3
ObjectDBX Classes
 90
        0
280
     0
281
     0
  0
CLASS
  1
XRECORD
  2
AcDbXrecord
  3
ObjectDBX Classes
 90
        0
280
     0
281
     0
  0
CLASS
  1
LWPOLYLINE
  2
AcDbPolyline
  3
ObjectDBX Classes
 90
        0
280
     0
281
     1
  0
ENDSEC
  0
SECTION
  2
TABLES
  0
TABLE
  2
VPORT
  5
20
330
0
100
AcDbSymbolTable
 70
     1
  0
VPORT
  5
21
330
20
100
AcDbSymbolTableRecord
100
AcDbViewportTableRecord
  2
*ACTIVE
 70
     0
  0
ENDTAB
  0
TABLE
  2
LTYPE
  5
22
330
0
100
AcDbSymbolTable
 70
     1
  0
LTYPE
  5
23
330
21
100
AcDbSymbolTableRecord
100
AcDbLinetypeTableRecord
  2
BYBLOCK
 70
     0
  3

 72
    65
 73
     0
 40
0.0
  0
LTYPE
  5
24
330
21
100
AcDbSymbolTableRecord
100
AcDbLinetypeTableRecord
  2
BYLAYER
 70
     0
  3

 72
    65
 73
     0
 40
0.0
  0
LTYPE
  5
25
330
21
100
AcDbSymbolTableRecord
100
AcDbLinetypeTableRecord
  2
CONTINUOUS
 70
     0
  3
Solid line
 72
    65
 73
     0
 40
0.0
  0
ENDTAB
  0
TABLE
  2
LAYER
  5
A22
330
0
100
AcDbSymbolTable
 70
3
  0
LAYER
  5
A23
330
A22
100
AcDbSymbolTableRecord
100
AcDbLayerTableRecord
  2
0
 70
   0
 62
   7
  6
CONTINUOUS
  0
LAYER
  5
A24
330
A22
100
AcDbSymbolTableRecord
100
AcDbLayerTableRecord
  2
none
 70
    0
 62
    7
  6
CONTINUOUS
  0
LAYER
  5
A25
330
A22
100
AcDbSymbolTableRecord
100
AcDbLayerTableRecord
  2
Sketch107
 70
    0
 62
    7
  6
CONTINUOUS
  0
ENDTAB
  0
TABLE
  2
STYLE
  5
70
330
0
100
AcDbSymbolTable
 70
     2
  0
STYLE
  5
71
330
70
100
AcDbSymbolTableRecord
100
AcDbTextStyleTableRecord
  2
STANDARD
 70
     0
 40
0.0
 41
1.0
 50
0.0
 71
     0
 42
2.5
  3
arial.ttf
  4

  0
STYLE
  5
72
330
70
100
AcDbSymbolTableRecord
100
AcDbTextStyleTableRecord
  2
ANNOTATIVE
 70
     0
 40
0.0
 41
1.0
 50
0.0
 71
     0
 42
2.5
  3
arial.ttf
  4

  0
ENDTAB
  0
TABLE
  2
VIEW
  5
73
330
0
100
AcDbSymbolTable
 70
     0
  0
ENDTAB
  0
TABLE
  2
UCS
  5
74
330
0
100
AcDbSymbolTable
 70
     0
  0
ENDTAB
  0
TABLE
  2
APPID
  5
75
330
0
100
AcDbSymbolTable
 70
     2
  0
APPID
  5
76
330
75
100
AcDbSymbolTableRecord
100
AcDbRegAppTableRecord
  2
ACAD
 70
     0
  0
APPID
  5
77
330
75
100
AcDbSymbolTableRecord
100
AcDbRegAppTableRecord
  2
ACADANNOTATIVE
 70
     0
  0
ENDTAB
  0
TABLE
  2
DIMSTYLE
  5
78
330
0
100
AcDbSymbolTable
 70
     2
  0
DIMSTYLE
105
79
330
78
100
AcDbSymbolTableRecord
100
AcDbDimStyleTableRecord
  2
STANDARD
 70
     0
  3

  4

  5

  6

  7

 40
0.0
 41
2.5
 42
0.625
 43
3.75
 44
1.25
 45
0.0
 46
0.0
 47
0.0
 48
0.0
140
2.5
141
2.5
142
0.0
143
0.03937007874016
144
1.0
145
0.0
146
1.0
147
0.625
 71
     0
 72
     0
 73
     0
 74
     0
 75
     0
 76
     0
 77
     1
 78
     8
170
     0
171
     3
172
     1
173
     0
174
     0
175
     0
176
     0
177
     0
178
     0
270
     2
271
     2
272
     2
273
     2
274
     3
340
71
275
     0
280
     0
281
     0
282
     0
283
     0
284
     8
285
     0
286
     0
287
     3
288
     0
  0
ENDTAB
  0
TABLE
  2
BLOCK_RECORD
  5
A01
330
0
100
AcDbSymbolTable
  70
5
  0
BLOCK_RECORD
  5
A02
330
A01
100
AcDbSymbolTableRecord
100
AcDbBlockTableRecord
  2
*MODEL_SPACE
  0
BLOCK_RECORD
  5
A03
330
A01
100
AcDbSymbolTableRecord
100
AcDbBlockTableRecord
  2
*PAPER_SPACE
  0
ENDTAB
  0
ENDSEC
  0
SECTION
  2
BLOCKS
  0
BLOCK
  5
A04
330
A02
100
AcDbEntity
  8
0
100
AcDbBlockBegin
  2
*MODEL_SPACE
 70
   0
 10
0
 20
0
 30
0
  3
*MODEL_SPACE
  1
 
  0
ENDBLK
  5
A05
330
A02
100
AcDbEntity
  8
0
100
AcDbBlockEnd
  0
BLOCK
  5
A06
330
A03
100
AcDbEntity
 67
1
  8
0
100
AcDbBlockBegin
  2
*PAPER_SPACE
 70
   0
 10
0
 20
0
 30
0
  3
*PAPER_SPACE
  1
 
  0
ENDBLK
  5
A07
330
A03
100
AcDbEntity
 67
    1
  8
0
100
AcDbBlockEnd
  0
ENDSEC
  0
SECTION
  2
ENTITIES
  0
LINE
  5
A08
330
A02
100
AcDbEntity
  8
Sketch107
100
AcDbLine
 10
89
 20
5.1
 30
0
 11
89
 21
15.3146
 31
0
  0
ARC
  5
A09
330
A02
100
AcDbEntity
  8
Sketch107
100
AcDbCircle
 10
84
 20
15.3146
 30
0
 40
5
100
AcDbArc
 50
-2.03555e-14
 51
60
  0
LINE
  5
A0A
330
A02
100
AcDbEntity
  8
Sketch107
100
AcDbLine
 10
-70
 20
110
 30
0
 11
86.5
 21
19.6447
 31
0
  0
LINE
  5
A0B
330
A02
100
AcDbEntity
  8
Sketch107
100
AcDbLine
 10
-70
 20
110
 30
0
 11
-65.0247
 21
118.617
 31
0
  0
ARC
  5
A0C
330
A02
100
AcDbEntity
  8
Sketch107
100
AcDbCircle
 10
-63.2927
 20
117.617
 30
0
 40
2
100
AcDbArc
 50
72.9822
 51
150
  0
LINE
  5
A0D
330
A02
100
AcDbEntity
  8
Sketch107
100
AcDbLine
 10
-62.7074
 20
119.53
 30
0
 11
-49.5096
 21
115.49
 31
0
  0
ARC
  5
A0E
330
A02
100
AcDbEntity
  8
Sketch107
100
AcDbCircle
 10
-47.7536
 20
121.228
 30
0
 40
6
100
AcDbArc
 50
-107.018
 51
60
  0
LINE
  5
A0F
330
A02
100
AcDbEntity
  8
Sketch107
100
AcDbLine
 10
-44.7536
 20
126.424
 30
0
 11
-65.2369
 21
138.25
 31
0
  0
ARC
  5
A10
330
A02
100
AcDbEntity
  8
Sketch107
100
AcDbCircle
 10
-67.7369
 20
133.92
 30
0
 40
5
100
AcDbArc
 50
60
 51
150
  0
LINE
  5
A11
330
A02
100
AcDbEntity
  8
Sketch107
100
AcDbLine
 10
-72.0671
 20
136.42
 30
0
 11
-96.8429
 21
93.5068
 31
0
  0
LINE
  5
A12
330
A02
100
AcDbEntity
  8
Sketch107
100
AcDbLine
 10
-96.8429
 20
93.5068
 30
0
 11
-83
 21
15
 31
0
  0
LINE
  5
A13
330
A02
100
AcDbEntity
  8
Sketch107
100
AcDbLine
 10
48.1522
 20
15
 30
0
 11
-83
 21
15
 31
0
  0
ARC
  5
A14
330
A02
100
AcDbEntity
  8
Sketch107
100
AcDbCircle
 10
49.0761
 20
14.6173
 30
0
 40
1
100
AcDbArc
 50
-112.5
 51
157.5
  0
LINE
  5
A15
330
A02
100
AcDbEntity
  8
Sketch107
100
AcDbLine
 10
48.6934
 20
13.6934
 30
0
 11
36.1
 21
1.1
 31
0
  0
LINE
  5
A16
330
A02
100
AcDbEntity
  8
Sketch107
100
AcDbLine
 10
36.1
 20
1.1
 30
0
 11
36.1
 21
0.1
 31
0
  0
LINE
  5
A17
330
A02
100
AcDbEntity
  8
Sketch107
100
AcDbLine
 10
36.1
 20
0.1
 30
0
 11
84
 21
0.1
 31
0
  0
ARC
  5
A18
330
A02
100
AcDbEntity
  8
Sketch107
100
AcDbCircle
 10
84
 20
5.1
 30
0
 40
5
100
AcDbArc
 50
-90
 51
-2.03555e-14
  0
LINE
  5
A19
330
A02
100
AcDbEntity
  8
Sketch107
100
AcDbLine
 10
58.2961
 20
27.9282
 30
0
 11
54.2961
 21
21
 31
0
  0
LINE
  5
A1A
330
A02
100
AcDbEntity
  8
Sketch107
100
AcDbLine
 10
54.2961
 20
21
 30
0
 11
36.9756
 21
31
 31
0
  0
LINE
  5
A1B
330
A02
100
AcDbEntity
  8
Sketch107
100
AcDbLine
 10
36.9756
 20
31
 30
0
 11
40.9756
 21
37.9282
 31
0
  0
LINE
  5
A1C
330
A02
100
AcDbEntity
  8
Sketch107
100
AcDbLine
 10
40.9756
 20
37.9282
 30
0
 11
58.2961
 21
27.9282
 31
0
  0
LINE
  5
A1D
330
A02
100
AcDbEntity
  8
Sketch107
100
AcDbLine
 10
-69.9468
 20
62.3972
 30
0
 11
-69.9468
 21
54.3972
 31
0
  0
LINE
  5
A1E
330
A02
100
AcDbEntity
  8
Sketch107
100
AcDbLine
 10
-69.9468
 20
54.3972
 30
0
 11
-49.9468
 21
54.3972
 31
0
  0
LINE
  5
A1F
330
A02
100
AcDbEntity
  8
Sketch107
100
AcDbLine
 10
-49.9468
 20
54.3972
 30
0
 11
-49.9468
 21
62.3972
 31
0
  0
LINE
  5
A20
330
A02
100
AcDbEntity
  8
Sketch107
100
AcDbLine
 10
-49.9468
 20
62.3972
 30
0
 11
-69.9468
 21
62.3972
 31
0
  0
CIRCLE
  5
A21
330
A02
100
AcDbEntity
  8
Sketch107
100
AcDbCircle
 10
55
 20
8
 40
1
  0
ENDSEC
  0
SECTION
  2
OBJECTS
  0
DICTIONARY
  5
F000
330
0
100
AcDbDictionary
  3
ACAD_GROUP
350
F001
  0
DICTIONARY
  5
F001
330
F000
100
AcDbDictionary
  0
ENDSEC
  0
EOF