999
FreeCAD v2024.123 14555 (Git shallow)
  0
SECTION
  2
HEADER
  9
$ACADVER
  1
AC1014
  9
$ACADMAINTVER
 70
     9
  9
$DWGCODEPAGE
  3
ANSI_1252
  9
$TEXTSTYLE
  7
STANDARD
  9
$DIMSTYLE
  2
STANDARD
  9
$DIMTXSTY
  7
STANDARD
  9
$CMLSTYLE
  2
STANDARD
  9
$LUNITS
 70
2
  9
$INSUNITS
 70
4
  9
$PEXTMAX
 10
50
 20
50
 30
50
  9
$PEXTMIN
 10
0
 20
0
 30
0
  9
$HANDSEED
  5
FFFF
  0
ENDSEC
  0
SECTION
  2
CLASSES
  0
CLASS
  1
ACDBDICTIONARYWDFLT
  2
AcDbDictionaryWithDefault
  3
ObjectDBX Classes
 90
        0
280
     0
281
     0
  0
CLASS
  1
XRECORD
  2
AcDbXrecord
  3
ObjectDBX Classes
 90
        0
280
     0
281
     0
  0
CLASS
  1
LWPOLYLINE
  2
AcDbPolyline
  3
ObjectDBX Classes
 90
        0
280
     0
281
     1
  0
ENDSEC
  0
SECTION
  2
TABLES
  0
TABLE
  2
VPORT
  5
20
330
0
100
AcDbSymbolTable
 70
     1
  0
VPORT
  5
21
330
20
100
AcDbSymbolTableRecord
100
AcDbViewportTableRecord
  2
*ACTIVE
 70
     0
  0
ENDTAB
  0
TABLE
  2
LTYPE
  5
22
330
0
100
AcDbSymbolTable
 70
     1
  0
LTYPE
  5
23
330
21
100
AcDbSymbolTableRecord
100
AcDbLinetypeTableRecord
  2
BYBLOCK
 70
     0
  3

 72
    65
 73
     0
 40
0.0
  0
LTYPE
  5
24
330
21
100
AcDbSymbolTableRecord
100
AcDbLinetypeTableRecord
  2
BYLAYER
 70
     0
  3

 72
    65
 73
     0
 40
0.0
  0
LTYPE
  5
25
330
21
100
AcDbSymbolTableRecord
100
AcDbLinetypeTableRecord
  2
CONTINUOUS
 70
     0
  3
Solid line
 72
    65
 73
     0
 40
0.0
  0
ENDTAB
  0
TABLE
  2
LAYER
  5
AC0
330
0
100
AcDbSymbolTable
 70
3
  0
LAYER
  5
AC1
330
AC0
100
AcDbSymbolTableRecord
100
AcDbLayerTableRecord
  2
0
 70
   0
 62
   7
  6
CONTINUOUS
  0
LAYER
  5
AC2
330
AC0
100
AcDbSymbolTableRecord
100
AcDbLayerTableRecord
  2
none
 70
    0
 62
    7
  6
CONTINUOUS
  0
LAYER
  5
AC3
330
AC0
100
AcDbSymbolTableRecord
100
AcDbLayerTableRecord
  2
Sketch046
 70
    0
 62
    7
  6
CONTINUOUS
  0
ENDTAB
  0
TABLE
  2
STYLE
  5
70
330
0
100
AcDbSymbolTable
 70
     2
  0
STYLE
  5
71
330
70
100
AcDbSymbolTableRecord
100
AcDbTextStyleTableRecord
  2
STANDARD
 70
     0
 40
0.0
 41
1.0
 50
0.0
 71
     0
 42
2.5
  3
arial.ttf
  4

  0
STYLE
  5
72
330
70
100
AcDbSymbolTableRecord
100
AcDbTextStyleTableRecord
  2
ANNOTATIVE
 70
     0
 40
0.0
 41
1.0
 50
0.0
 71
     0
 42
2.5
  3
arial.ttf
  4

  0
ENDTAB
  0
TABLE
  2
VIEW
  5
73
330
0
100
AcDbSymbolTable
 70
     0
  0
ENDTAB
  0
TABLE
  2
UCS
  5
74
330
0
100
AcDbSymbolTable
 70
     0
  0
ENDTAB
  0
TABLE
  2
APPID
  5
75
330
0
100
AcDbSymbolTable
 70
     2
  0
APPID
  5
76
330
75
100
AcDbSymbolTableRecord
100
AcDbRegAppTableRecord
  2
ACAD
 70
     0
  0
APPID
  5
77
330
75
100
AcDbSymbolTableRecord
100
AcDbRegAppTableRecord
  2
ACADANNOTATIVE
 70
     0
  0
ENDTAB
  0
TABLE
  2
DIMSTYLE
  5
78
330
0
100
AcDbSymbolTable
 70
     2
  0
DIMSTYLE
105
79
330
78
100
AcDbSymbolTableRecord
100
AcDbDimStyleTableRecord
  2
STANDARD
 70
     0
  3

  4

  5

  6

  7

 40
0.0
 41
2.5
 42
0.625
 43
3.75
 44
1.25
 45
0.0
 46
0.0
 47
0.0
 48
0.0
140
2.5
141
2.5
142
0.0
143
0.03937007874016
144
1.0
145
0.0
146
1.0
147
0.625
 71
     0
 72
     0
 73
     0
 74
     0
 75
     0
 76
     0
 77
     1
 78
     8
170
     0
171
     3
172
     1
173
     0
174
     0
175
     0
176
     0
177
     0
178
     0
270
     2
271
     2
272
     2
273
     2
274
     3
340
71
275
     0
280
     0
281
     0
282
     0
283
     0
284
     8
285
     0
286
     0
287
     3
288
     0
  0
ENDTAB
  0
TABLE
  2
BLOCK_RECORD
  5
A01
330
0
100
AcDbSymbolTable
  70
5
  0
BLOCK_RECORD
  5
A02
330
A01
100
AcDbSymbolTableRecord
100
AcDbBlockTableRecord
  2
*MODEL_SPACE
  0
BLOCK_RECORD
  5
A03
330
A01
100
AcDbSymbolTableRecord
100
AcDbBlockTableRecord
  2
*PAPER_SPACE
  0
ENDTAB
  0
ENDSEC
  0
SECTION
  2
BLOCKS
  0
BLOCK
  5
A04
330
A02
100
AcDbEntity
  8
0
100
AcDbBlockBegin
  2
*MODEL_SPACE
 70
   0
 10
0
 20
0
 30
0
  3
*MODEL_SPACE
  1
 
  0
ENDBLK
  5
A05
330
A02
100
AcDbEntity
  8
0
100
AcDbBlockEnd
  0
BLOCK
  5
A06
330
A03
100
AcDbEntity
 67
1
  8
0
100
AcDbBlockBegin
  2
*PAPER_SPACE
 70
   0
 10
0
 20
0
 30
0
  3
*PAPER_SPACE
  1
 
  0
ENDBLK
  5
A07
330
A03
100
AcDbEntity
 67
    1
  8
0
100
AcDbBlockEnd
  0
ENDSEC
  0
SECTION
  2
ENTITIES
  0
LINE
  5
A08
330
A02
100
AcDbEntity
  8
Sketch046
100
AcDbLine
 10
196
 20
-63
 30
0
 11
210
 21
-63
 31
0
  0
LINE
  5
A09
330
A02
100
AcDbEntity
  8
Sketch046
100
AcDbLine
 10
210
 20
-63
 30
0
 11
210
 21
-50.5
 31
0
  0
LINE
  5
A0A
330
A02
100
AcDbEntity
  8
Sketch046
100
AcDbLine
 10
210
 20
-50.5
 30
0
 11
218
 21
-50.5
 31
0
  0
LINE
  5
A0B
330
A02
100
AcDbEntity
  8
Sketch046
100
AcDbLine
 10
218
 20
-35.5
 30
0
 11
218
 21
-50.5
 31
0
  0
LINE
  5
A0C
330
A02
100
AcDbEntity
  8
Sketch046
100
AcDbLine
 10
210
 20
-35.5
 30
0
 11
218
 21
-35.5
 31
0
  0
LINE
  5
A0D
330
A02
100
AcDbEntity
  8
Sketch046
100
AcDbLine
 10
210
 20
-35.5
 30
0
 11
210
 21
-23
 31
0
  0
LINE
  5
A0E
330
A02
100
AcDbEntity
  8
Sketch046
100
AcDbLine
 10
23.3333
 20
-23
 30
0
 11
210
 21
-23
 31
0
  0
LINE
  5
A0F
330
A02
100
AcDbEntity
  8
Sketch046
100
AcDbLine
 10
23.3333
 20
-15.5
 30
0
 11
23.3333
 21
-23
 31
0
  0
LINE
  5
A10
330
A02
100
AcDbEntity
  8
Sketch046
100
AcDbLine
 10
-163.333
 20
-15.5
 30
0
 11
23.3333
 21
-15.5
 31
0
  0
LINE
  5
A11
330
A02
100
AcDbEntity
  8
Sketch046
100
AcDbLine
 10
-163.333
 20
-23
 30
0
 11
-163.333
 21
-15.5
 31
0
  0
LINE
  5
A12
330
A02
100
AcDbEntity
  8
Sketch046
100
AcDbLine
 10
-350
 20
-23
 30
0
 11
-163.333
 21
-23
 31
0
  0
LINE
  5
A13
330
A02
100
AcDbEntity
  8
Sketch046
100
AcDbLine
 10
-350
 20
-23
 30
0
 11
-350
 21
-35.5
 31
0
  0
LINE
  5
A14
330
A02
100
AcDbEntity
  8
Sketch046
100
AcDbLine
 10
-350
 20
-35.5
 30
0
 11
-358
 21
-35.5
 31
0
  0
LINE
  5
A15
330
A02
100
AcDbEntity
  8
Sketch046
100
AcDbLine
 10
-358
 20
-35.5
 30
0
 11
-358
 21
-50.5
 31
0
  0
LINE
  5
A16
330
A02
100
AcDbEntity
  8
Sketch046
100
AcDbLine
 10
-358
 20
-50.5
 30
0
 11
-350
 21
-50.5
 31
0
  0
LINE
  5
A17
330
A02
100
AcDbEntity
  8
Sketch046
100
AcDbLine
 10
-350
 20
-50.5
 30
0
 11
-350
 21
-63
 31
0
  0
LINE
  5
A18
330
A02
100
AcDbEntity
  8
Sketch046
100
AcDbLine
 10
-350
 20
-63
 30
0
 11
-334.75
 21
-63
 31
0
  0
ARC
  5
A19
330
A02
100
AcDbEntity
  8
Sketch046
100
AcDbCircle
 10
-334.75
 20
-60
 30
0
 40
3
100
AcDbArc
 50
-90
 51
1.35704e-13
  0
LINE
  5
A1A
330
A02
100
AcDbEntity
  8
Sketch046
100
AcDbLine
 10
-331.75
 20
-52.75
 30
0
 11
-331.75
 21
-60
 31
0
  0
LINE
  5
A1B
330
A02
100
AcDbEntity
  8
Sketch046
100
AcDbLine
 10
-335.629
 20
-52.75
 30
0
 11
-331.75
 21
-52.75
 31
0
  0
LINE
  5
A1C
330
A02
100
AcDbEntity
  8
Sketch046
100
AcDbLine
 10
-341.258
 20
-43
 30
0
 11
-335.629
 21
-52.75
 31
0
  0
LINE
  5
A1D
330
A02
100
AcDbEntity
  8
Sketch046
100
AcDbLine
 10
-335.629
 20
-33.25
 30
0
 11
-341.258
 21
-43
 31
0
  0
LINE
  5
A1E
330
A02
100
AcDbEntity
  8
Sketch046
100
AcDbLine
 10
-324.371
 20
-33.25
 30
0
 11
-335.629
 21
-33.25
 31
0
  0
LINE
  5
A1F
330
A02
100
AcDbEntity
  8
Sketch046
100
AcDbLine
 10
-318.742
 20
-43
 30
0
 11
-324.371
 21
-33.25
 31
0
  0
LINE
  5
A20
330
A02
100
AcDbEntity
  8
Sketch046
100
AcDbLine
 10
-324.371
 20
-52.75
 30
0
 11
-318.742
 21
-43
 31
0
  0
LINE
  5
A21
330
A02
100
AcDbEntity
  8
Sketch046
100
AcDbLine
 10
-328.25
 20
-52.75
 30
0
 11
-324.371
 21
-52.75
 31
0
  0
LINE
  5
A22
330
A02
100
AcDbEntity
  8
Sketch046
100
AcDbLine
 10
-328.25
 20
-60
 30
0
 11
-328.25
 21
-52.75
 31
0
  0
ARC
  5
A23
330
A02
100
AcDbEntity
  8
Sketch046
100
AcDbCircle
 10
-325.25
 20
-60
 30
0
 40
3
100
AcDbArc
 50
180
 51
-90
  0
LINE
  5
A24
330
A02
100
AcDbEntity
  8
Sketch046
100
AcDbLine
 10
-325.25
 20
-63
 30
0
 11
-295
 21
-63
 31
0
  0
ARC
  5
A25
330
A02
100
AcDbEntity
  8
Sketch046
100
AcDbCircle
 10
-295
 20
-60
 30
0
 40
3
100
AcDbArc
 50
-90
 51
1.35704e-13
  0
LINE
  5
A26
330
A02
100
AcDbEntity
  8
Sketch046
100
AcDbLine
 10
-292
 20
-54.5
 30
0
 11
-292
 21
-60
 31
0
  0
LINE
  5
A27
330
A02
100
AcDbEntity
  8
Sketch046
100
AcDbLine
 10
-296.64
 20
-54.5
 30
0
 11
-292
 21
-54.5
 31
0
  0
LINE
  5
A28
330
A02
100
AcDbEntity
  8
Sketch046
100
AcDbLine
 10
-303.279
 20
-43
 30
0
 11
-296.64
 21
-54.5
 31
0
  0
LINE
  5
A29
330
A02
100
AcDbEntity
  8
Sketch046
100
AcDbLine
 10
-296.64
 20
-31.5
 30
0
 11
-303.279
 21
-43
 31
0
  0
LINE
  5
A2A
330
A02
100
AcDbEntity
  8
Sketch046
100
AcDbLine
 10
-283.36
 20
-31.5
 30
0
 11
-296.64
 21
-31.5
 31
0
  0
LINE
  5
A2B
330
A02
100
AcDbEntity
  8
Sketch046
100
AcDbLine
 10
-276.721
 20
-43
 30
0
 11
-283.36
 21
-31.5
 31
0
  0
LINE
  5
A2C
330
A02
100
AcDbEntity
  8
Sketch046
100
AcDbLine
 10
-283.36
 20
-54.5
 30
0
 11
-276.721
 21
-43
 31
0
  0
LINE
  5
A2D
330
A02
100
AcDbEntity
  8
Sketch046
100
AcDbLine
 10
-288
 20
-54.5
 30
0
 11
-283.36
 21
-54.5
 31
0
  0
LINE
  5
A2E
330
A02
100
AcDbEntity
  8
Sketch046
100
AcDbLine
 10
-288
 20
-60
 30
0
 11
-288
 21
-54.5
 31
0
  0
ARC
  5
A2F
330
A02
100
AcDbEntity
  8
Sketch046
100
AcDbCircle
 10
-285
 20
-60
 30
0
 40
3
100
AcDbArc
 50
180
 51
-90
  0
LINE
  5
A30
330
A02
100
AcDbEntity
  8
Sketch046
100
AcDbLine
 10
-285
 20
-63
 30
0
 11
-256
 21
-63
 31
0
  0
ARC
  5
A31
330
A02
100
AcDbEntity
  8
Sketch046
100
AcDbCircle
 10
-256
 20
-60
 30
0
 40
3
100
AcDbArc
 50
-90
 51
1.35704e-13
  0
LINE
  5
A32
330
A02
100
AcDbEntity
  8
Sketch046
100
AcDbLine
 10
-253
 20
-56.5
 30
0
 11
-253
 21
-60
 31
0
  0
LINE
  5
A33
330
A02
100
AcDbEntity
  8
Sketch046
100
AcDbLine
 10
-257.794
 20
-56.5
 30
0
 11
-253
 21
-56.5
 31
0
  0
LINE
  5
A34
330
A02
100
AcDbEntity
  8
Sketch046
100
AcDbLine
 10
-265.588
 20
-43
 30
0
 11
-257.794
 21
-56.5
 31
0
  0
LINE
  5
A35
330
A02
100
AcDbEntity
  8
Sketch046
100
AcDbLine
 10
-257.794
 20
-29.5
 30
0
 11
-265.588
 21
-43
 31
0
  0
LINE
  5
A36
330
A02
100
AcDbEntity
  8
Sketch046
100
AcDbLine
 10
-242.206
 20
-29.5
 30
0
 11
-257.794
 21
-29.5
 31
0
  0
LINE
  5
A37
330
A02
100
AcDbEntity
  8
Sketch046
100
AcDbLine
 10
-234.412
 20
-43
 30
0
 11
-242.206
 21
-29.5
 31
0
  0
LINE
  5
A38
330
A02
100
AcDbEntity
  8
Sketch046
100
AcDbLine
 10
-242.206
 20
-56.5
 30
0
 11
-234.412
 21
-43
 31
0
  0
LINE
  5
A39
330
A02
100
AcDbEntity
  8
Sketch046
100
AcDbLine
 10
-247
 20
-56.5
 30
0
 11
-242.206
 21
-56.5
 31
0
  0
LINE
  5
A3A
330
A02
100
AcDbEntity
  8
Sketch046
100
AcDbLine
 10
-247
 20
-60
 30
0
 11
-247
 21
-56.5
 31
0
  0
ARC
  5
A3B
330
A02
100
AcDbEntity
  8
Sketch046
100
AcDbCircle
 10
-244
 20
-60
 30
0
 40
3
100
AcDbArc
 50
180
 51
-90
  0
LINE
  5
A3C
330
A02
100
AcDbEntity
  8
Sketch046
100
AcDbLine
 10
-244
 20
-63
 30
0
 11
-215.25
 21
-63
 31
0
  0
ARC
  5
A3D
330
A02
100
AcDbEntity
  8
Sketch046
100
AcDbCircle
 10
-215.25
 20
-60
 30
0
 40
3
100
AcDbArc
 50
-90
 51
1.35704e-13
  0
LINE
  5
A3E
330
A02
100
AcDbEntity
  8
Sketch046
100
AcDbLine
 10
-212.25
 20
-54.5
 30
0
 11
-212.25
 21
-60
 31
0
  0
LINE
  5
A3F
330
A02
100
AcDbEntity
  8
Sketch046
100
AcDbLine
 10
-216.64
 20
-54.5
 30
0
 11
-212.25
 21
-54.5
 31
0
  0
LINE
  5
A40
330
A02
100
AcDbEntity
  8
Sketch046
100
AcDbLine
 10
-223.279
 20
-43
 30
0
 11
-216.64
 21
-54.5
 31
0
  0
LINE
  5
A41
330
A02
100
AcDbEntity
  8
Sketch046
100
AcDbLine
 10
-216.64
 20
-31.5
 30
0
 11
-223.279
 21
-43
 31
0
  0
LINE
  5
A42
330
A02
100
AcDbEntity
  8
Sketch046
100
AcDbLine
 10
-203.36
 20
-31.5
 30
0
 11
-216.64
 21
-31.5
 31
0
  0
LINE
  5
A43
330
A02
100
AcDbEntity
  8
Sketch046
100
AcDbLine
 10
-196.721
 20
-43
 30
0
 11
-203.36
 21
-31.5
 31
0
  0
LINE
  5
A44
330
A02
100
AcDbEntity
  8
Sketch046
100
AcDbLine
 10
-203.36
 20
-54.5
 30
0
 11
-196.721
 21
-43
 31
0
  0
LINE
  5
A45
330
A02
100
AcDbEntity
  8
Sketch046
100
AcDbLine
 10
-207.75
 20
-54.5
 30
0
 11
-203.36
 21
-54.5
 31
0
  0
LINE
  5
A46
330
A02
100
AcDbEntity
  8
Sketch046
100
AcDbLine
 10
-207.75
 20
-60
 30
0
 11
-207.75
 21
-54.5
 31
0
  0
ARC
  5
A47
330
A02
100
AcDbEntity
  8
Sketch046
100
AcDbCircle
 10
-204.75
 20
-60
 30
0
 40
3
100
AcDbArc
 50
180
 51
-90
  0
LINE
  5
A48
330
A02
100
AcDbEntity
  8
Sketch046
100
AcDbLine
 10
-204.75
 20
-63
 30
0
 11
-175.25
 21
-63
 31
0
  0
ARC
  5
A49
330
A02
100
AcDbEntity
  8
Sketch046
100
AcDbCircle
 10
-175.25
 20
-60
 30
0
 40
3
100
AcDbArc
 50
-90
 51
1.35704e-13
  0
LINE
  5
A4A
330
A02
100
AcDbEntity
  8
Sketch046
100
AcDbLine
 10
-172.25
 20
-54.5
 30
0
 11
-172.25
 21
-60
 31
0
  0
LINE
  5
A4B
330
A02
100
AcDbEntity
  8
Sketch046
100
AcDbLine
 10
-176.64
 20
-54.5
 30
0
 11
-172.25
 21
-54.5
 31
0
  0
LINE
  5
A4C
330
A02
100
AcDbEntity
  8
Sketch046
100
AcDbLine
 10
-183.279
 20
-43
 30
0
 11
-176.64
 21
-54.5
 31
0
  0
LINE
  5
A4D
330
A02
100
AcDbEntity
  8
Sketch046
100
AcDbLine
 10
-176.64
 20
-31.5
 30
0
 11
-183.279
 21
-43
 31
0
  0
LINE
  5
A4E
330
A02
100
AcDbEntity
  8
Sketch046
100
AcDbLine
 10
-163.36
 20
-31.5
 30
0
 11
-176.64
 21
-31.5
 31
0
  0
LINE
  5
A4F
330
A02
100
AcDbEntity
  8
Sketch046
100
AcDbLine
 10
-156.721
 20
-43
 30
0
 11
-163.36
 21
-31.5
 31
0
  0
LINE
  5
A50
330
A02
100
AcDbEntity
  8
Sketch046
100
AcDbLine
 10
-163.36
 20
-54.5
 30
0
 11
-156.721
 21
-43
 31
0
  0
LINE
  5
A51
330
A02
100
AcDbEntity
  8
Sketch046
100
AcDbLine
 10
-167.75
 20
-54.5
 30
0
 11
-163.36
 21
-54.5
 31
0
  0
LINE
  5
A52
330
A02
100
AcDbEntity
  8
Sketch046
100
AcDbLine
 10
-167.75
 20
-60
 30
0
 11
-167.75
 21
-54.5
 31
0
  0
ARC
  5
A53
330
A02
100
AcDbEntity
  8
Sketch046
100
AcDbCircle
 10
-164.75
 20
-60
 30
0
 40
3
100
AcDbArc
 50
180
 51
-90
  0
LINE
  5
A54
330
A02
100
AcDbEntity
  8
Sketch046
100
AcDbLine
 10
-164.75
 20
-63
 30
0
 11
-136
 21
-63
 31
0
  0
ARC
  5
A55
330
A02
100
AcDbEntity
  8
Sketch046
100
AcDbCircle
 10
-136
 20
-60
 30
0
 40
3
100
AcDbArc
 50
-90
 51
1.35704e-13
  0
LINE
  5
A56
330
A02
100
AcDbEntity
  8
Sketch046
100
AcDbLine
 10
-133
 20
-56.5
 30
0
 11
-133
 21
-60
 31
0
  0
LINE
  5
A57
330
A02
100
AcDbEntity
  8
Sketch046
100
AcDbLine
 10
-137.794
 20
-56.5
 30
0
 11
-133
 21
-56.5
 31
0
  0
LINE
  5
A58
330
A02
100
AcDbEntity
  8
Sketch046
100
AcDbLine
 10
-145.588
 20
-43
 30
0
 11
-137.794
 21
-56.5
 31
0
  0
LINE
  5
A59
330
A02
100
AcDbEntity
  8
Sketch046
100
AcDbLine
 10
-137.794
 20
-29.5
 30
0
 11
-145.588
 21
-43
 31
0
  0
LINE
  5
A5A
330
A02
100
AcDbEntity
  8
Sketch046
100
AcDbLine
 10
-122.206
 20
-29.5
 30
0
 11
-137.794
 21
-29.5
 31
0
  0
LINE
  5
A5B
330
A02
100
AcDbEntity
  8
Sketch046
100
AcDbLine
 10
-114.412
 20
-43
 30
0
 11
-122.206
 21
-29.5
 31
0
  0
LINE
  5
A5C
330
A02
100
AcDbEntity
  8
Sketch046
100
AcDbLine
 10
-122.206
 20
-56.5
 30
0
 11
-114.412
 21
-43
 31
0
  0
LINE
  5
A5D
330
A02
100
AcDbEntity
  8
Sketch046
100
AcDbLine
 10
-127
 20
-56.5
 30
0
 11
-122.206
 21
-56.5
 31
0
  0
LINE
  5
A5E
330
A02
100
AcDbEntity
  8
Sketch046
100
AcDbLine
 10
-127
 20
-60
 30
0
 11
-127
 21
-56.5
 31
0
  0
ARC
  5
A5F
330
A02
100
AcDbEntity
  8
Sketch046
100
AcDbCircle
 10
-124
 20
-60
 30
0
 40
3
100
AcDbArc
 50
180
 51
-90
  0
LINE
  5
A60
330
A02
100
AcDbEntity
  8
Sketch046
100
AcDbLine
 10
-124
 20
-63
 30
0
 11
-96
 21
-63
 31
0
  0
ARC
  5
A61
330
A02
100
AcDbEntity
  8
Sketch046
100
AcDbCircle
 10
-96
 20
-60
 30
0
 40
3
100
AcDbArc
 50
-90
 51
1.35704e-13
  0
LINE
  5
A62
330
A02
100
AcDbEntity
  8
Sketch046
100
AcDbLine
 10
-93
 20
-56.5
 30
0
 11
-93
 21
-60
 31
0
  0
LINE
  5
A63
330
A02
100
AcDbEntity
  8
Sketch046
100
AcDbLine
 10
-97.7942
 20
-56.5
 30
0
 11
-93
 21
-56.5
 31
0
  0
LINE
  5
A64
330
A02
100
AcDbEntity
  8
Sketch046
100
AcDbLine
 10
-105.588
 20
-43
 30
0
 11
-97.7942
 21
-56.5
 31
0
  0
LINE
  5
A65
330
A02
100
AcDbEntity
  8
Sketch046
100
AcDbLine
 10
-97.7942
 20
-29.5
 30
0
 11
-105.588
 21
-43
 31
0
  0
LINE
  5
A66
330
A02
100
AcDbEntity
  8
Sketch046
100
AcDbLine
 10
-82.2058
 20
-29.5
 30
0
 11
-97.7942
 21
-29.5
 31
0
  0
LINE
  5
A67
330
A02
100
AcDbEntity
  8
Sketch046
100
AcDbLine
 10
-74.4115
 20
-43
 30
0
 11
-82.2058
 21
-29.5
 31
0
  0
LINE
  5
A68
330
A02
100
AcDbEntity
  8
Sketch046
100
AcDbLine
 10
-82.2058
 20
-56.5
 30
0
 11
-74.4115
 21
-43
 31
0
  0
LINE
  5
A69
330
A02
100
AcDbEntity
  8
Sketch046
100
AcDbLine
 10
-87
 20
-56.5
 30
0
 11
-82.2058
 21
-56.5
 31
0
  0
LINE
  5
A6A
330
A02
100
AcDbEntity
  8
Sketch046
100
AcDbLine
 10
-87
 20
-60
 30
0
 11
-87
 21
-56.5
 31
0
  0
ARC
  5
A6B
330
A02
100
AcDbEntity
  8
Sketch046
100
AcDbCircle
 10
-84
 20
-60
 30
0
 40
3
100
AcDbArc
 50
180
 51
-90
  0
LINE
  5
A6C
330
A02
100
AcDbEntity
  8
Sketch046
100
AcDbLine
 10
-84
 20
-63
 30
0
 11
-57
 21
-63
 31
0
  0
ARC
  5
A6D
330
A02
100
AcDbEntity
  8
Sketch046
100
AcDbCircle
 10
-57
 20
-60
 30
0
 40
3
100
AcDbArc
 50
-90
 51
-1.35704e-13
  0
LINE
  5
A6E
330
A02
100
AcDbEntity
  8
Sketch046
100
AcDbLine
 10
-54
 20
-58.75
 30
0
 11
-54
 21
-60
 31
0
  0
LINE
  5
A6F
330
A02
100
AcDbEntity
  8
Sketch046
100
AcDbLine
 10
-59.0933
 20
-58.75
 30
0
 11
-54
 21
-58.75
 31
0
  0
LINE
  5
A70
330
A02
100
AcDbEntity
  8
Sketch046
100
AcDbLine
 10
-68.1865
 20
-43
 30
0
 11
-59.0933
 21
-58.75
 31
0
  0
LINE
  5
A71
330
A02
100
AcDbEntity
  8
Sketch046
100
AcDbLine
 10
-59.0933
 20
-27.25
 30
0
 11
-68.1865
 21
-43
 31
0
  0
LINE
  5
A72
330
A02
100
AcDbEntity
  8
Sketch046
100
AcDbLine
 10
-40.9067
 20
-27.25
 30
0
 11
-59.0933
 21
-27.25
 31
0
  0
LINE
  5
A73
330
A02
100
AcDbEntity
  8
Sketch046
100
AcDbLine
 10
-31.8135
 20
-43
 30
0
 11
-40.9067
 21
-27.25
 31
0
  0
LINE
  5
A74
330
A02
100
AcDbEntity
  8
Sketch046
100
AcDbLine
 10
-40.9067
 20
-58.75
 30
0
 11
-31.8135
 21
-43
 31
0
  0
LINE
  5
A75
330
A02
100
AcDbEntity
  8
Sketch046
100
AcDbLine
 10
-46
 20
-58.75
 30
0
 11
-40.9067
 21
-58.75
 31
0
  0
LINE
  5
A76
330
A02
100
AcDbEntity
  8
Sketch046
100
AcDbLine
 10
-46
 20
-60
 30
0
 11
-46
 21
-58.75
 31
0
  0
ARC
  5
A77
330
A02
100
AcDbEntity
  8
Sketch046
100
AcDbCircle
 10
-43
 20
-60
 30
0
 40
3
100
AcDbArc
 50
180
 51
-90
  0
LINE
  5
A78
330
A02
100
AcDbEntity
  8
Sketch046
100
AcDbLine
 10
-43
 20
-63
 30
0
 11
-17
 21
-63
 31
0
  0
ARC
  5
A79
330
A02
100
AcDbEntity
  8
Sketch046
100
AcDbCircle
 10
-17
 20
-60
 30
0
 40
3
100
AcDbArc
 50
-90
 51
1.35704e-13
  0
LINE
  5
A7A
330
A02
100
AcDbEntity
  8
Sketch046
100
AcDbLine
 10
-14
 20
-58.75
 30
0
 11
-14
 21
-60
 31
0
  0
LINE
  5
A7B
330
A02
100
AcDbEntity
  8
Sketch046
100
AcDbLine
 10
-19.0933
 20
-58.75
 30
0
 11
-14
 21
-58.75
 31
0
  0
LINE
  5
A7C
330
A02
100
AcDbEntity
  8
Sketch046
100
AcDbLine
 10
-28.1865
 20
-43
 30
0
 11
-19.0933
 21
-58.75
 31
0
  0
LINE
  5
A7D
330
A02
100
AcDbEntity
  8
Sketch046
100
AcDbLine
 10
-19.0933
 20
-27.25
 30
0
 11
-28.1865
 21
-43
 31
0
  0
LINE
  5
A7E
330
A02
100
AcDbEntity
  8
Sketch046
100
AcDbLine
 10
-0.906733
 20
-27.25
 30
0
 11
-19.0933
 21
-27.25
 31
0
  0
LINE
  5
A7F
330
A02
100
AcDbEntity
  8
Sketch046
100
AcDbLine
 10
8.18653
 20
-43
 30
0
 11
-0.906733
 21
-27.25
 31
0
  0
LINE
  5
A80
330
A02
100
AcDbEntity
  8
Sketch046
100
AcDbLine
 10
-0.906733
 20
-58.75
 30
0
 11
8.18653
 21
-43
 31
0
  0
LINE
  5
A81
330
A02
100
AcDbEntity
  8
Sketch046
100
AcDbLine
 10
-6
 20
-58.75
 30
0
 11
-0.906733
 21
-58.75
 31
0
  0
LINE
  5
A82
330
A02
100
AcDbEntity
  8
Sketch046
100
AcDbLine
 10
-6
 20
-60
 30
0
 11
-6
 21
-58.75
 31
0
  0
ARC
  5
A83
330
A02
100
AcDbEntity
  8
Sketch046
100
AcDbCircle
 10
-3
 20
-60
 30
0
 40
3
100
AcDbArc
 50
180
 51
-90
  0
LINE
  5
A84
330
A02
100
AcDbEntity
  8
Sketch046
100
AcDbLine
 10
-3
 20
-63
 30
0
 11
25
 21
-63
 31
0
  0
ARC
  5
A85
330
A02
100
AcDbEntity
  8
Sketch046
100
AcDbCircle
 10
25
 20
-60
 30
0
 40
3
100
AcDbArc
 50
-90
 51
-1.35704e-13
  0
LINE
  5
A86
330
A02
100
AcDbEntity
  8
Sketch046
100
AcDbLine
 10
28
 20
-52.75
 30
0
 11
28
 21
-60
 31
0
  0
LINE
  5
A87
330
A02
100
AcDbEntity
  8
Sketch046
100
AcDbLine
 10
24.3708
 20
-52.75
 30
0
 11
28
 21
-52.75
 31
0
  0
LINE
  5
A88
330
A02
100
AcDbEntity
  8
Sketch046
100
AcDbLine
 10
18.7417
 20
-43
 30
0
 11
24.3708
 21
-52.75
 31
0
  0
LINE
  5
A89
330
A02
100
AcDbEntity
  8
Sketch046
100
AcDbLine
 10
24.3708
 20
-33.25
 30
0
 11
18.7417
 21
-43
 31
0
  0
LINE
  5
A8A
330
A02
100
AcDbEntity
  8
Sketch046
100
AcDbLine
 10
35.6292
 20
-33.25
 30
0
 11
24.3708
 21
-33.25
 31
0
  0
LINE
  5
A8B
330
A02
100
AcDbEntity
  8
Sketch046
100
AcDbLine
 10
41.2583
 20
-43
 30
0
 11
35.6292
 21
-33.25
 31
0
  0
LINE
  5
A8C
330
A02
100
AcDbEntity
  8
Sketch046
100
AcDbLine
 10
35.6292
 20
-52.75
 30
0
 11
41.2583
 21
-43
 31
0
  0
LINE
  5
A8D
330
A02
100
AcDbEntity
  8
Sketch046
100
AcDbLine
 10
32
 20
-52.75
 30
0
 11
35.6292
 21
-52.75
 31
0
  0
LINE
  5
A8E
330
A02
100
AcDbEntity
  8
Sketch046
100
AcDbLine
 10
32
 20
-60
 30
0
 11
32
 21
-52.75
 31
0
  0
ARC
  5
A8F
330
A02
100
AcDbEntity
  8
Sketch046
100
AcDbCircle
 10
35
 20
-60
 30
0
 40
3
100
AcDbArc
 50
180
 51
-90
  0
LINE
  5
A90
330
A02
100
AcDbEntity
  8
Sketch046
100
AcDbLine
 10
35
 20
-63
 30
0
 11
65
 21
-63
 31
0
  0
ARC
  5
A91
330
A02
100
AcDbEntity
  8
Sketch046
100
AcDbCircle
 10
65
 20
-60
 30
0
 40
3
100
AcDbArc
 50
-90
 51
-1.35704e-13
  0
LINE
  5
A92
330
A02
100
AcDbEntity
  8
Sketch046
100
AcDbLine
 10
68
 20
-54.5
 30
0
 11
68
 21
-60
 31
0
  0
LINE
  5
A93
330
A02
100
AcDbEntity
  8
Sketch046
100
AcDbLine
 10
63.3605
 20
-54.5
 30
0
 11
68
 21
-54.5
 31
0
  0
LINE
  5
A94
330
A02
100
AcDbEntity
  8
Sketch046
100
AcDbLine
 10
56.7209
 20
-43
 30
0
 11
63.3605
 21
-54.5
 31
0
  0
LINE
  5
A95
330
A02
100
AcDbEntity
  8
Sketch046
100
AcDbLine
 10
63.3605
 20
-31.5
 30
0
 11
56.7209
 21
-43
 31
0
  0
LINE
  5
A96
330
A02
100
AcDbEntity
  8
Sketch046
100
AcDbLine
 10
76.6395
 20
-31.5
 30
0
 11
63.3605
 21
-31.5
 31
0
  0
LINE
  5
A97
330
A02
100
AcDbEntity
  8
Sketch046
100
AcDbLine
 10
83.2791
 20
-43
 30
0
 11
76.6395
 21
-31.5
 31
0
  0
LINE
  5
A98
330
A02
100
AcDbEntity
  8
Sketch046
100
AcDbLine
 10
76.6395
 20
-54.5
 30
0
 11
83.2791
 21
-43
 31
0
  0
LINE
  5
A99
330
A02
100
AcDbEntity
  8
Sketch046
100
AcDbLine
 10
72
 20
-54.5
 30
0
 11
76.6395
 21
-54.5
 31
0
  0
LINE
  5
A9A
330
A02
100
AcDbEntity
  8
Sketch046
100
AcDbLine
 10
72
 20
-60
 30
0
 11
72
 21
-54.5
 31
0
  0
ARC
  5
A9B
330
A02
100
AcDbEntity
  8
Sketch046
100
AcDbCircle
 10
75
 20
-60
 30
0
 40
3
100
AcDbArc
 50
180
 51
-90
  0
LINE
  5
A9C
330
A02
100
AcDbEntity
  8
Sketch046
100
AcDbLine
 10
75
 20
-63
 30
0
 11
104.75
 21
-63
 31
0
  0
ARC
  5
A9D
330
A02
100
AcDbEntity
  8
Sketch046
100
AcDbCircle
 10
104.75
 20
-60
 30
0
 40
3
100
AcDbArc
 50
-90
 51
1.35704e-13
  0
LINE
  5
A9E
330
A02
100
AcDbEntity
  8
Sketch046
100
AcDbLine
 10
107.75
 20
-54.5
 30
0
 11
107.75
 21
-60
 31
0
  0
LINE
  5
A9F
330
A02
100
AcDbEntity
  8
Sketch046
100
AcDbLine
 10
103.36
 20
-54.5
 30
0
 11
107.75
 21
-54.5
 31
0
  0
LINE
  5
AA0
330
A02
100
AcDbEntity
  8
Sketch046
100
AcDbLine
 10
96.7209
 20
-43
 30
0
 11
103.36
 21
-54.5
 31
0
  0
LINE
  5
AA1
330
A02
100
AcDbEntity
  8
Sketch046
100
AcDbLine
 10
103.36
 20
-31.5
 30
0
 11
96.7209
 21
-43
 31
0
  0
LINE
  5
AA2
330
A02
100
AcDbEntity
  8
Sketch046
100
AcDbLine
 10
116.64
 20
-31.5
 30
0
 11
103.36
 21
-31.5
 31
0
  0
LINE
  5
AA3
330
A02
100
AcDbEntity
  8
Sketch046
100
AcDbLine
 10
123.279
 20
-43
 30
0
 11
116.64
 21
-31.5
 31
0
  0
LINE
  5
AA4
330
A02
100
AcDbEntity
  8
Sketch046
100
AcDbLine
 10
116.64
 20
-54.5
 30
0
 11
123.279
 21
-43
 31
0
  0
LINE
  5
AA5
330
A02
100
AcDbEntity
  8
Sketch046
100
AcDbLine
 10
112.25
 20
-54.5
 30
0
 11
116.64
 21
-54.5
 31
0
  0
LINE
  5
AA6
330
A02
100
AcDbEntity
  8
Sketch046
100
AcDbLine
 10
112.25
 20
-60
 30
0
 11
112.25
 21
-54.5
 31
0
  0
ARC
  5
AA7
330
A02
100
AcDbEntity
  8
Sketch046
100
AcDbCircle
 10
115.25
 20
-60
 30
0
 40
3
100
AcDbArc
 50
180
 51
-90
  0
LINE
  5
AA8
330
A02
100
AcDbEntity
  8
Sketch046
100
AcDbLine
 10
115.25
 20
-63
 30
0
 11
144.5
 21
-63
 31
0
  0
ARC
  5
AA9
330
A02
100
AcDbEntity
  8
Sketch046
100
AcDbCircle
 10
144.5
 20
-60
 30
0
 40
3
100
AcDbArc
 50
-90
 51
1.35704e-13
  0
LINE
  5
AAA
330
A02
100
AcDbEntity
  8
Sketch046
100
AcDbLine
 10
147.5
 20
-56.5
 30
0
 11
147.5
 21
-60
 31
0
  0
LINE
  5
AAB
330
A02
100
AcDbEntity
  8
Sketch046
100
AcDbLine
 10
142.206
 20
-56.5
 30
0
 11
147.5
 21
-56.5
 31
0
  0
LINE
  5
AAC
330
A02
100
AcDbEntity
  8
Sketch046
100
AcDbLine
 10
134.412
 20
-43
 30
0
 11
142.206
 21
-56.5
 31
0
  0
LINE
  5
AAD
330
A02
100
AcDbEntity
  8
Sketch046
100
AcDbLine
 10
142.206
 20
-29.5
 30
0
 11
134.412
 21
-43
 31
0
  0
LINE
  5
AAE
330
A02
100
AcDbEntity
  8
Sketch046
100
AcDbLine
 10
157.794
 20
-29.5
 30
0
 11
142.206
 21
-29.5
 31
0
  0
LINE
  5
AAF
330
A02
100
AcDbEntity
  8
Sketch046
100
AcDbLine
 10
165.588
 20
-43
 30
0
 11
157.794
 21
-29.5
 31
0
  0
LINE
  5
AB0
330
A02
100
AcDbEntity
  8
Sketch046
100
AcDbLine
 10
157.794
 20
-56.5
 30
0
 11
165.588
 21
-43
 31
0
  0
LINE
  5
AB1
330
A02
100
AcDbEntity
  8
Sketch046
100
AcDbLine
 10
152.5
 20
-56.5
 30
0
 11
157.794
 21
-56.5
 31
0
  0
LINE
  5
AB2
330
A02
100
AcDbEntity
  8
Sketch046
100
AcDbLine
 10
152.5
 20
-60
 30
0
 11
152.5
 21
-56.5
 31
0
  0
ARC
  5
AB3
330
A02
100
AcDbEntity
  8
Sketch046
100
AcDbCircle
 10
155.5
 20
-60
 30
0
 40
3
100
AcDbArc
 50
180
 51
-90
  0
LINE
  5
AB4
330
A02
100
AcDbEntity
  8
Sketch046
100
AcDbLine
 10
155.5
 20
-63
 30
0
 11
184
 21
-63
 31
0
  0
ARC
  5
AB5
330
A02
100
AcDbEntity
  8
Sketch046
100
AcDbCircle
 10
184
 20
-60
 30
0
 40
3
100
AcDbArc
 50
-90
 51
1.35704e-13
  0
LINE
  5
AB6
330
A02
100
AcDbEntity
  8
Sketch046
100
AcDbLine
 10
187
 20
-56.5
 30
0
 11
187
 21
-60
 31
0
  0
LINE
  5
AB7
330
A02
100
AcDbEntity
  8
Sketch046
100
AcDbLine
 10
182.206
 20
-56.5
 30
0
 11
187
 21
-56.5
 31
0
  0
LINE
  5
AB8
330
A02
100
AcDbEntity
  8
Sketch046
100
AcDbLine
 10
174.412
 20
-43
 30
0
 11
182.206
 21
-56.5
 31
0
  0
LINE
  5
AB9
330
A02
100
AcDbEntity
  8
Sketch046
100
AcDbLine
 10
182.206
 20
-29.5
 30
0
 11
174.412
 21
-43
 31
0
  0
LINE
  5
ABA
330
A02
100
AcDbEntity
  8
Sketch046
100
AcDbLine
 10
197.794
 20
-29.5
 30
0
 11
182.206
 21
-29.5
 31
0
  0
LINE
  5
ABB
330
A02
100
AcDbEntity
  8
Sketch046
100
AcDbLine
 10
205.588
 20
-43
 30
0
 11
197.794
 21
-29.5
 31
0
  0
LINE
  5
ABC
330
A02
100
AcDbEntity
  8
Sketch046
100
AcDbLine
 10
197.794
 20
-56.5
 30
0
 11
205.588
 21
-43
 31
0
  0
LINE
  5
ABD
330
A02
100
AcDbEntity
  8
Sketch046
100
AcDbLine
 10
193
 20
-56.5
 30
0
 11
197.794
 21
-56.5
 31
0
  0
LINE
  5
ABE
330
A02
100
AcDbEntity
  8
Sketch046
100
AcDbLine
 10
193
 20
-60
 30
0
 11
193
 21
-56.5
 31
0
  0
ARC
  5
ABF
330
A02
100
AcDbEntity
  8
Sketch046
100
AcDbCircle
 10
196
 20
-60
 30
0
 40
3
100
AcDbArc
 50
180
 51
-90
  0
ENDSEC
  0
SECTION
  2
OBJECTS
  0
DICTIONARY
  5
F000
330
0
100
AcDbDictionary
  3
ACAD_GROUP
350
F001
  0
DICTIONARY
  5
F001
330
F000
100
AcDbDictionary
  0
ENDSEC
  0
EOF