999
FreeCAD v2024.123 14555 (Git shallow)
  0
SECTION
  2
HEADER
  9
$ACADVER
  1
AC1014
  9
$ACADMAINTVER
 70
     9
  9
$DWGCODEPAGE
  3
ANSI_1252
  9
$TEXTSTYLE
  7
STANDARD
  9
$DIMSTYLE
  2
STANDARD
  9
$DIMTXSTY
  7
STANDARD
  9
$CMLSTYLE
  2
STANDARD
  9
$LUNITS
 70
2
  9
$INSUNITS
 70
4
  9
$PEXTMAX
 10
50
 20
50
 30
50
  9
$PEXTMIN
 10
0
 20
0
 30
0
  9
$HANDSEED
  5
FFFF
  0
ENDSEC
  0
SECTION
  2
CLASSES
  0
CLASS
  1
ACDBDICTIONARYWDFLT
  2
AcDbDictionaryWithDefault
  3
ObjectDBX Classes
 90
        0
280
     0
281
     0
  0
CLASS
  1
XRECORD
  2
AcDbXrecord
  3
ObjectDBX Classes
 90
        0
280
     0
281
     0
  0
CLASS
  1
LWPOLYLINE
  2
AcDbPolyline
  3
ObjectDBX Classes
 90
        0
280
     0
281
     1
  0
ENDSEC
  0
SECTION
  2
TABLES
  0
TABLE
  2
VPORT
  5
20
330
0
100
AcDbSymbolTable
 70
     1
  0
VPORT
  5
21
330
20
100
AcDbSymbolTableRecord
100
AcDbViewportTableRecord
  2
*ACTIVE
 70
     0
  0
ENDTAB
  0
TABLE
  2
LTYPE
  5
22
330
0
100
AcDbSymbolTable
 70
     1
  0
LTYPE
  5
23
330
21
100
AcDbSymbolTableRecord
100
AcDbLinetypeTableRecord
  2
BYBLOCK
 70
     0
  3

 72
    65
 73
     0
 40
0.0
  0
LTYPE
  5
24
330
21
100
AcDbSymbolTableRecord
100
AcDbLinetypeTableRecord
  2
BYLAYER
 70
     0
  3

 72
    65
 73
     0
 40
0.0
  0
LTYPE
  5
25
330
21
100
AcDbSymbolTableRecord
100
AcDbLinetypeTableRecord
  2
CONTINUOUS
 70
     0
  3
Solid line
 72
    65
 73
     0
 40
0.0
  0
ENDTAB
  0
TABLE
  2
LAYER
  5
A25
330
0
100
AcDbSymbolTable
 70
3
  0
LAYER
  5
A26
330
A25
100
AcDbSymbolTableRecord
100
AcDbLayerTableRecord
  2
0
 70
   0
 62
   7
  6
CONTINUOUS
  0
LAYER
  5
A27
330
A25
100
AcDbSymbolTableRecord
100
AcDbLayerTableRecord
  2
none
 70
    0
 62
    7
  6
CONTINUOUS
  0
LAYER
  5
A28
330
A25
100
AcDbSymbolTableRecord
100
AcDbLayerTableRecord
  2
Sketch080
 70
    0
 62
    7
  6
CONTINUOUS
  0
ENDTAB
  0
TABLE
  2
STYLE
  5
70
330
0
100
AcDbSymbolTable
 70
     2
  0
STYLE
  5
71
330
70
100
AcDbSymbolTableRecord
100
AcDbTextStyleTableRecord
  2
STANDARD
 70
     0
 40
0.0
 41
1.0
 50
0.0
 71
     0
 42
2.5
  3
arial.ttf
  4

  0
STYLE
  5
72
330
70
100
AcDbSymbolTableRecord
100
AcDbTextStyleTableRecord
  2
ANNOTATIVE
 70
     0
 40
0.0
 41
1.0
 50
0.0
 71
     0
 42
2.5
  3
arial.ttf
  4

  0
ENDTAB
  0
TABLE
  2
VIEW
  5
73
330
0
100
AcDbSymbolTable
 70
     0
  0
ENDTAB
  0
TABLE
  2
UCS
  5
74
330
0
100
AcDbSymbolTable
 70
     0
  0
ENDTAB
  0
TABLE
  2
APPID
  5
75
330
0
100
AcDbSymbolTable
 70
     2
  0
APPID
  5
76
330
75
100
AcDbSymbolTableRecord
100
AcDbRegAppTableRecord
  2
ACAD
 70
     0
  0
APPID
  5
77
330
75
100
AcDbSymbolTableRecord
100
AcDbRegAppTableRecord
  2
ACADANNOTATIVE
 70
     0
  0
ENDTAB
  0
TABLE
  2
DIMSTYLE
  5
78
330
0
100
AcDbSymbolTable
 70
     2
  0
DIMSTYLE
105
79
330
78
100
AcDbSymbolTableRecord
100
AcDbDimStyleTableRecord
  2
STANDARD
 70
     0
  3

  4

  5

  6

  7

 40
0.0
 41
2.5
 42
0.625
 43
3.75
 44
1.25
 45
0.0
 46
0.0
 47
0.0
 48
0.0
140
2.5
141
2.5
142
0.0
143
0.03937007874016
144
1.0
145
0.0
146
1.0
147
0.625
 71
     0
 72
     0
 73
     0
 74
     0
 75
     0
 76
     0
 77
     1
 78
     8
170
     0
171
     3
172
     1
173
     0
174
     0
175
     0
176
     0
177
     0
178
     0
270
     2
271
     2
272
     2
273
     2
274
     3
340
71
275
     0
280
     0
281
     0
282
     0
283
     0
284
     8
285
     0
286
     0
287
     3
288
     0
  0
ENDTAB
  0
TABLE
  2
BLOCK_RECORD
  5
A01
330
0
100
AcDbSymbolTable
  70
5
  0
BLOCK_RECORD
  5
A02
330
A01
100
AcDbSymbolTableRecord
100
AcDbBlockTableRecord
  2
*MODEL_SPACE
  0
BLOCK_RECORD
  5
A03
330
A01
100
AcDbSymbolTableRecord
100
AcDbBlockTableRecord
  2
*PAPER_SPACE
  0
ENDTAB
  0
ENDSEC
  0
SECTION
  2
BLOCKS
  0
BLOCK
  5
A04
330
A02
100
AcDbEntity
  8
0
100
AcDbBlockBegin
  2
*MODEL_SPACE
 70
   0
 10
0
 20
0
 30
0
  3
*MODEL_SPACE
  1
 
  0
ENDBLK
  5
A05
330
A02
100
AcDbEntity
  8
0
100
AcDbBlockEnd
  0
BLOCK
  5
A06
330
A03
100
AcDbEntity
 67
1
  8
0
100
AcDbBlockBegin
  2
*PAPER_SPACE
 70
   0
 10
0
 20
0
 30
0
  3
*PAPER_SPACE
  1
 
  0
ENDBLK
  5
A07
330
A03
100
AcDbEntity
 67
    1
  8
0
100
AcDbBlockEnd
  0
ENDSEC
  0
SECTION
  2
ENTITIES
  0
SPLINE
  5
A08
330
A02
100
AcDbEntity
  8
Sketch080
100
AcDbSpline
210
0
220
0
230
1
 70
8
 71
2
 72
30
 73
27
 74
0
 40
-8.88178e-16
 40
-8.88178e-16
 40
-8.88178e-16
 40
0.1122
 40
0.1122
 40
0.224399
 40
0.224399
 40
0.336599
 40
0.336599
 40
0.448799
 40
0.448799
 40
0.560999
 40
0.560999
 40
0.673198
 40
0.673198
 40
0.785398
 40
0.785398
 40
0.897598
 40
0.897598
 40
1.0098
 40
1.0098
 40
1.122
 40
1.122
 40
1.2342
 40
1.2342
 40
1.3464
 40
1.3464
 40
1.5708
 40
1.5708
 40
1.5708
 10
-1.55653e-14
 20
-0.1
 30
0
 10
-1.5631e-14
 20
-0.115719
 30
0
 10
-1.56966e-14
 20
-0.131439
 30
0
 10
-1.57684e-14
 20
-0.1784
 30
0
 10
-1.58402e-14
 20
-0.22536
 30
0
 10
-1.59173e-14
 20
-0.302972
 30
0
 10
-1.59943e-14
 20
-0.380583
 30
0
 10
-1.60756e-14
 20
-0.48787
 30
0
 10
-1.6157e-14
 20
-0.595156
 30
0
 10
-1.62416e-14
 20
-0.730767
 30
0
 10
-1.63262e-14
 20
-0.866379
 30
0
 10
-1.6413e-14
 20
-1.02861
 30
0
 10
-1.64998e-14
 20
-1.19084
 30
0
 10
-1.65877e-14
 20
-1.37765
 30
0
 10
-1.66755e-14
 20
-1.56447
 30
0
 10
-1.67634e-14
 20
-1.77351
 30
0
 10
-1.68513e-14
 20
-1.98255
 30
0
 10
-1.69381e-14
 20
-2.2112
 30
0
 10
-1.70249e-14
 20
-2.43984
 30
0
 10
-1.71095e-14
 20
-2.68521
 30
0
 10
-1.71941e-14
 20
-2.93058
 30
0
 10
-1.72755e-14
 20
-3.18959
 30
0
 10
-1.73568e-14
 20
-3.4486
 30
0
 10
-1.74338e-14
 20
-3.718
 30
0
 10
-1.75109e-14
 20
-3.9874
 30
0
 10
-1.76579e-14
 20
-4.5382
 30
0
 10
-1.77858e-14
 20
-5.1
 30
0
  0
LINE
  5
A09
330
A02
100
AcDbEntity
  8
Sketch080
100
AcDbLine
 10
-1.77858e-14
 20
-5.1
 30
0
 11
8
 21
-5.1
 31
0
  0
LINE
  5
A0A
330
A02
100
AcDbEntity
  8
Sketch080
100
AcDbLine
 10
-2.44709e-14
 20
-35.2073
 30
0
 11
-1.77858e-14
 21
-5.1
 31
0
  0
LINE
  5
A0B
330
A02
100
AcDbEntity
  8
Sketch080
100
AcDbLine
 10
-1.16045e-14
 20
-35.2073
 30
0
 11
8
 21
-35.2073
 31
0
  0
LINE
  5
A0C
330
A02
100
AcDbEntity
  8
Sketch080
100
AcDbLine
 10
-1.16045e-14
 20
-37.2073
 30
0
 11
8
 21
-37.2073
 31
0
  0
SPLINE
  5
A0D
330
A02
100
AcDbEntity
  8
Sketch080
100
AcDbSpline
210
0
220
0
230
1
 70
8
 71
3
 72
8
 73
4
 74
0
 40
5.75959
 40
5.75959
 40
5.75959
 40
5.75959
 40
6.28319
 40
6.28319
 40
6.28319
 40
6.28319
 10
-1.30101e-14
 20
-37.2073
 30
0
 10
-1.29727e-14
 20
-36.6024
 30
0
 10
-1.28698e-14
 20
-35.9057
 30
0
 10
-1.27148e-14
 20
-35.2073
 30
0
  0
LINE
  5
A0E
330
A02
100
AcDbEntity
  8
Sketch080
100
AcDbLine
 10
-3.2755e-14
 20
-122.016
 30
0
 11
-2.4796e-14
 21
-37.2073
 31
0
  0
LINE
  5
A0F
330
A02
100
AcDbEntity
  8
Sketch080
100
AcDbLine
 10
-1.16045e-14
 20
-122.016
 30
0
 11
8
 21
-122.016
 31
0
  0
LINE
  5
A10
330
A02
100
AcDbEntity
  8
Sketch080
100
AcDbLine
 10
-1.22786e-14
 20
-124.016
 30
0
 11
8
 21
-124.016
 31
0
  0
SPLINE
  5
A11
330
A02
100
AcDbEntity
  8
Sketch080
100
AcDbSpline
210
0
220
0
230
1
 70
8
 71
1
 72
17
 73
15
 74
0
 40
4.71239
 40
4.71239
 40
4.78719
 40
4.86199
 40
4.93679
 40
5.01159
 40
5.08639
 40
5.16119
 40
5.23599
 40
5.31079
 40
5.38559
 40
5.46039
 40
5.53519
 40
5.60999
 40
5.68479
 40
5.75959
 40
5.75959
 10
-1.24927e-14
 20
-124.016
 30
0
 10
-1.25732e-14
 20
-124.004
 30
0
 10
-1.26483e-14
 20
-123.971
 30
0
 10
-1.27175e-14
 20
-123.915
 30
0
 10
-1.27805e-14
 20
-123.838
 30
0
 10
-1.28369e-14
 20
-123.739
 30
0
 10
-1.28865e-14
 20
-123.619
 30
0
 10
-1.29288e-14
 20
-123.48
 30
0
 10
-1.29638e-14
 20
-123.321
 30
0
 10
-1.29912e-14
 20
-123.143
 30
0
 10
-1.30108e-14
 20
-122.948
 30
0
 10
-1.30225e-14
 20
-122.736
 30
0
 10
-1.30263e-14
 20
-122.51
 30
0
 10
-1.30222e-14
 20
-122.269
 30
0
 10
-1.30101e-14
 20
-122.016
 30
0
  0
SPLINE
  5
A12
330
A02
100
AcDbEntity
  8
Sketch080
100
AcDbSpline
210
0
220
0
230
1
 70
8
 71
1
 72
17
 73
15
 74
0
 40
4.71239
 40
4.71239
 40
4.78719
 40
4.86199
 40
4.93679
 40
5.01159
 40
5.08639
 40
5.16119
 40
5.23599
 40
5.31079
 40
5.38559
 40
5.46039
 40
5.53519
 40
5.60999
 40
5.68479
 40
5.75959
 40
5.75959
 10
8
 20
-124.016
 30
0
 10
8
 20
-124.004
 30
0
 10
8
 20
-123.971
 30
0
 10
8
 20
-123.915
 30
0
 10
8
 20
-123.838
 30
0
 10
8
 20
-123.739
 30
0
 10
8
 20
-123.619
 30
0
 10
8
 20
-123.48
 30
0
 10
8
 20
-123.321
 30
0
 10
8
 20
-123.143
 30
0
 10
8
 20
-122.948
 30
0
 10
8
 20
-122.736
 30
0
 10
8
 20
-122.51
 30
0
 10
8
 20
-122.269
 30
0
 10
8
 20
-122.016
 30
0
  0
LINE
  5
A13
330
A02
100
AcDbEntity
  8
Sketch080
100
AcDbLine
 10
8
 20
-122.016
 30
0
 11
8
 21
-37.2073
 31
0
  0
SPLINE
  5
A14
330
A02
100
AcDbEntity
  8
Sketch080
100
AcDbSpline
210
0
220
0
230
1
 70
8
 71
3
 72
8
 73
4
 74
0
 40
5.75959
 40
5.75959
 40
5.75959
 40
5.75959
 40
6.28319
 40
6.28319
 40
6.28319
 40
6.28319
 10
8
 20
-37.2073
 30
0
 10
8
 20
-36.6024
 30
0
 10
8
 20
-35.9057
 30
0
 10
8
 20
-35.2073
 30
0
  0
LINE
  5
A15
330
A02
100
AcDbEntity
  8
Sketch080
100
AcDbLine
 10
8
 20
-35.2073
 30
0
 11
8
 21
-5.1
 31
0
  0
SPLINE
  5
A16
330
A02
100
AcDbEntity
  8
Sketch080
100
AcDbSpline
210
0
220
0
230
1
 70
8
 71
2
 72
30
 73
27
 74
0
 40
-8.88178e-16
 40
-8.88178e-16
 40
-8.88178e-16
 40
0.1122
 40
0.1122
 40
0.224399
 40
0.224399
 40
0.336599
 40
0.336599
 40
0.448799
 40
0.448799
 40
0.560999
 40
0.560999
 40
0.673198
 40
0.673198
 40
0.785398
 40
0.785398
 40
0.897598
 40
0.897598
 40
1.0098
 40
1.0098
 40
1.122
 40
1.122
 40
1.2342
 40
1.2342
 40
1.3464
 40
1.3464
 40
1.5708
 40
1.5708
 40
1.5708
 10
8
 20
-0.1
 30
0
 10
8
 20
-0.115719
 30
0
 10
8
 20
-0.131439
 30
0
 10
8
 20
-0.1784
 30
0
 10
8
 20
-0.22536
 30
0
 10
8
 20
-0.302972
 30
0
 10
8
 20
-0.380583
 30
0
 10
8
 20
-0.48787
 30
0
 10
8
 20
-0.595156
 30
0
 10
8
 20
-0.730767
 30
0
 10
8
 20
-0.866379
 30
0
 10
8
 20
-1.02861
 30
0
 10
8
 20
-1.19084
 30
0
 10
8
 20
-1.37765
 30
0
 10
8
 20
-1.56447
 30
0
 10
8
 20
-1.77351
 30
0
 10
8
 20
-1.98255
 30
0
 10
8
 20
-2.2112
 30
0
 10
8
 20
-2.43984
 30
0
 10
8
 20
-2.68521
 30
0
 10
8
 20
-2.93058
 30
0
 10
8
 20
-3.18959
 30
0
 10
8
 20
-3.4486
 30
0
 10
8
 20
-3.718
 30
0
 10
8
 20
-3.9874
 30
0
 10
8
 20
-4.5382
 30
0
 10
8
 20
-5.1
 30
0
  0
LINE
  5
A17
330
A02
100
AcDbEntity
  8
Sketch080
100
AcDbLine
 10
-1.55653e-14
 20
-0.1
 30
0
 11
8
 21
-0.1
 31
0
  0
LINE
  5
A18
330
A02
100
AcDbEntity
  8
Sketch080
100
AcDbLine
 10
-33
 20
-73.8068
 30
0
 11
-7.10543e-15
 21
-73.8068
 31
0
  0
LINE
  5
A19
330
A02
100
AcDbEntity
  8
Sketch080
100
AcDbLine
 10
-33
 20
-63.8068
 30
0
 11
-33
 21
-73.8068
 31
0
  0
LINE
  5
A1A
330
A02
100
AcDbEntity
  8
Sketch080
100
AcDbLine
 10
-25
 20
-63.8068
 30
0
 11
-33
 21
-63.8068
 31
0
  0
LINE
  5
A1B
330
A02
100
AcDbEntity
  8
Sketch080
100
AcDbLine
 10
-25
 20
-38
 30
0
 11
-25
 21
-63.8068
 31
0
  0
LINE
  5
A1C
330
A02
100
AcDbEntity
  8
Sketch080
100
AcDbLine
 10
-33
 20
-38
 30
0
 11
-25
 21
-38
 31
0
  0
LINE
  5
A1D
330
A02
100
AcDbEntity
  8
Sketch080
100
AcDbLine
 10
-33
 20
-28
 30
0
 11
-33
 21
-38
 31
0
  0
LINE
  5
A1E
330
A02
100
AcDbEntity
  8
Sketch080
100
AcDbLine
 10
-25
 20
-28
 30
0
 11
-33
 21
-28
 31
0
  0
LINE
  5
A1F
330
A02
100
AcDbEntity
  8
Sketch080
100
AcDbLine
 10
-25
 20
-28
 30
0
 11
-25
 21
-23
 31
0
  0
LINE
  5
A20
330
A02
100
AcDbEntity
  8
Sketch080
100
AcDbLine
 10
-25
 20
-23
 30
0
 11
1.06581e-14
 21
-23
 31
0
  0
LINE
  5
A21
330
A02
100
AcDbEntity
  8
Sketch080
100
AcDbLine
 10
-8.5
 20
-33
 30
0
 11
-16.5
 21
-33
 31
0
  0
LINE
  5
A22
330
A02
100
AcDbEntity
  8
Sketch080
100
AcDbLine
 10
-16.5
 20
-33
 30
0
 11
-16.5
 21
-63.8068
 31
0
  0
LINE
  5
A23
330
A02
100
AcDbEntity
  8
Sketch080
100
AcDbLine
 10
-16.5
 20
-63.8068
 30
0
 11
-8.5
 21
-63.8068
 31
0
  0
LINE
  5
A24
330
A02
100
AcDbEntity
  8
Sketch080
100
AcDbLine
 10
-8.5
 20
-63.8068
 30
0
 11
-8.5
 21
-33
 31
0
  0
ENDSEC
  0
SECTION
  2
OBJECTS
  0
DICTIONARY
  5
F000
330
0
100
AcDbDictionary
  3
ACAD_GROUP
350
F001
  0
DICTIONARY
  5
F001
330
F000
100
AcDbDictionary
  0
ENDSEC
  0
EOF