999
"DXF R12 Output" (www.mydxf.blogspot.com)
 0 
SECTION
 2 
HEADER
 9 
$ACADVER
 1 
AC1009
 9 
$EXTMIN
 10 
 0 
 20 
 0 
 9 
$EXTMAX
 10 
 8.5 
 20 
 11 
 0 
ENDSEC
 0 
SECTION
 2 
ENTITIES
0
LINE
8
Layer 1
10
0.793749
20
297.793749
11
-0.793749
21
296.206251
0
LINE
8
Layer 1
10
0.000000
20
298.322915
11
0.000000
21
295.677085
0
LINE
8
Layer 1
10
2.116664
20
295.941668
11
1.058332
21
294.883336
0
LINE
8
Layer 1
10
1.587498
20
296.470834
11
0.529166
21
295.412502
0
LINE
8
Layer 1
10
1.058332
20
297.000000
11
0.000000
21
295.941668
0
LINE
8
Shape2DView
10
109.085613
20
12.558273
11
109.085613
21
52.557934
0
LINE
8
Shape2DView
10
109.085653
20
52.558164
11
108.978995
21
53.636170
0
LINE
8
Shape2DView
10
108.978995
20
53.636170
11
108.666990
21
54.662921
0
LINE
8
Shape2DView
10
108.666990
20
54.662921
11
108.161589
21
55.609563
0
LINE
8
Shape2DView
10
108.161589
20
55.609563
11
107.474741
21
56.447247
0
LINE
8
Shape2DView
10
107.474741
20
56.447247
11
106.637057
21
57.134094
0
LINE
8
Shape2DView
10
106.637057
20
57.134094
11
105.690414
21
57.639495
0
LINE
8
Shape2DView
10
105.690414
20
57.639495
11
104.663664
21
57.951500
0
LINE
8
Shape2DView
10
104.663664
20
57.951500
11
103.585657
21
58.058157
0
LINE
8
Shape2DView
10
103.585726
20
58.058614
11
13.585703
21
58.058614
0
LINE
8
Shape2DView
10
103.585657
20
7.058228
11
104.663664
21
7.164885
0
LINE
8
Shape2DView
10
104.663664
20
7.164885
11
105.690414
21
7.476889
0
LINE
8
Shape2DView
10
105.690414
20
7.476889
11
106.637057
21
7.982290
0
LINE
8
Shape2DView
10
106.637057
20
7.982290
11
107.474741
21
8.669137
0
LINE
8
Shape2DView
10
107.474741
20
8.669137
11
108.161589
21
9.506821
0
LINE
8
Shape2DView
10
108.161589
20
9.506821
11
108.666990
21
10.453464
0
LINE
8
Shape2DView
10
108.666990
20
10.453464
11
108.978995
21
11.480214
0
LINE
8
Shape2DView
10
108.978995
20
11.480214
11
109.085653
21
12.558220
0
LINE
8
Shape2DView
10
13.585703
20
7.057593
11
103.585726
21
7.057593
0
LINE
8
Shape2DView
10
13.585772
20
58.058157
11
12.477332
21
57.946416
0
LINE
8
Shape2DView
10
12.477332
20
57.946416
11
11.444926
21
57.625940
0
LINE
8
Shape2DView
10
11.444926
20
57.625940
11
10.510674
21
57.118844
0
LINE
8
Shape2DView
10
10.510674
20
57.118844
11
9.696690
21
56.447246
0
LINE
8
Shape2DView
10
9.696690
20
56.447246
11
9.025091
21
55.633262
0
LINE
8
Shape2DView
10
9.025091
20
55.633262
11
8.517996
21
54.699009
0
LINE
8
Shape2DView
10
8.517996
20
54.699009
11
8.197519
21
53.666604
0
LINE
8
Shape2DView
10
8.197519
20
53.666604
11
8.085779
21
52.558164
0
LINE
8
Shape2DView
10
8.085816
20
52.557934
11
8.085816
21
12.558273
0
LINE
8
Shape2DView
10
8.085779
20
12.558220
11
8.197519
21
11.449780
0
LINE
8
Shape2DView
10
8.197519
20
11.449780
11
8.517996
21
10.417375
0
LINE
8
Shape2DView
10
8.517996
20
10.417375
11
9.025091
21
9.483122
0
LINE
8
Shape2DView
10
9.025091
20
9.483122
11
9.696690
21
8.669138
0
LINE
8
Shape2DView
10
9.696690
20
8.669138
11
10.510674
21
7.997540
0
LINE
8
Shape2DView
10
10.510674
20
7.997540
11
11.444926
21
7.490444
0
LINE
8
Shape2DView
10
11.444926
20
7.490444
11
12.477332
21
7.169968
0
LINE
8
Shape2DView
10
12.477332
20
7.169968
11
13.585772
21
7.058228
0
LINE
8
Shape2DView
10
22.085697
20
9.557902
11
95.085733
21
9.557902
0
LINE
8
Shape2DView
10
95.085669
20
9.558219
11
95.864155
21
9.715388
0
LINE
8
Shape2DView
10
95.864155
20
9.715388
11
96.499875
21
10.144000
0
LINE
8
Shape2DView
10
96.499875
20
10.144000
11
96.928492
21
10.779718
0
LINE
8
Shape2DView
10
96.928492
20
10.779718
11
97.085665
21
11.558202
0
LINE
8
Shape2DView
10
97.085716
20
11.558149
11
97.085716
21
27.557483
0
LINE
8
Shape2DView
10
97.085665
20
27.558198
11
96.928492
21
28.336682
0
LINE
8
Shape2DView
10
96.928492
20
28.336682
11
96.499875
21
28.972400
0
LINE
8
Shape2DView
10
96.499875
20
28.972400
11
95.864155
21
29.401012
0
LINE
8
Shape2DView
10
95.864155
20
29.401012
11
95.085669
21
29.558181
0
LINE
8
Shape2DView
10
95.085733
20
29.557731
11
22.085697
21
29.557731
0
LINE
8
Shape2DView
10
22.085761
20
29.558181
11
21.307275
21
29.401012
0
LINE
8
Shape2DView
10
21.307275
20
29.401012
11
20.671555
21
28.972400
0
LINE
8
Shape2DView
10
20.671555
20
28.972400
11
20.242938
21
28.336682
0
LINE
8
Shape2DView
10
20.242938
20
28.336682
11
20.085764
21
27.558198
0
LINE
8
Shape2DView
10
20.085714
20
27.557483
11
20.085714
21
11.558149
0
LINE
8
Shape2DView
10
20.085764
20
11.558202
11
20.242938
21
10.779718
0
LINE
8
Shape2DView
10
20.242938
20
10.779718
11
20.671555
21
10.144000
0
LINE
8
Shape2DView
10
20.671555
20
10.144000
11
21.307275
21
9.715388
0
LINE
8
Shape2DView
10
21.307275
20
9.715388
11
22.085761
21
9.558219
0
LINE
8
Shape2DView
10
13.721558
20
11.143998
11
13.599567
21
11.747121
0
LINE
8
Shape2DView
10
13.599567
20
11.747121
11
13.267348
21
12.239598
0
LINE
8
Shape2DView
10
13.267348
20
12.239598
11
12.774734
21
12.571614
0
LINE
8
Shape2DView
10
12.774734
20
12.571614
11
12.171560
21
12.693355
0
LINE
8
Shape2DView
10
12.171560
20
12.693355
11
11.568386
21
12.571614
0
LINE
8
Shape2DView
10
11.568386
20
12.571614
11
11.075772
21
12.239598
0
LINE
8
Shape2DView
10
11.075772
20
12.239598
11
10.743553
21
11.747121
0
LINE
8
Shape2DView
10
10.743553
20
11.747121
11
10.621562
21
11.143998
0
LINE
8
Shape2DView
10
10.621562
20
11.143998
11
10.743553
21
10.540874
0
LINE
8
Shape2DView
10
10.743553
20
10.540874
11
11.075772
21
10.048397
0
LINE
8
Shape2DView
10
11.075772
20
10.048397
11
11.568386
21
9.716382
0
LINE
8
Shape2DView
10
11.568386
20
9.716382
11
12.171560
21
9.594640
0
LINE
8
Shape2DView
10
12.171560
20
9.594640
11
12.774734
21
9.716382
0
LINE
8
Shape2DView
10
12.774734
20
9.716382
11
13.267348
21
10.048397
0
LINE
8
Shape2DView
10
13.267348
20
10.048397
11
13.599567
21
10.540874
0
LINE
8
Shape2DView
10
13.599567
20
10.540874
11
13.721558
21
11.143998
0
LINE
8
Shape2DView
10
13.721558
20
11.143998
11
13.721558
21
11.143998
0
LINE
8
Shape2DView
10
106.549868
20
11.143998
11
106.427610
21
11.746823
0
LINE
8
Shape2DView
10
106.427610
20
11.746823
11
106.095330
21
12.238998
0
LINE
8
Shape2DView
10
106.095330
20
12.238998
11
105.602820
21
12.570779
0
LINE
8
Shape2DView
10
105.602820
20
12.570779
11
104.999871
21
12.692427
0
LINE
8
Shape2DView
10
104.999871
20
12.692427
11
104.396922
21
12.570779
0
LINE
8
Shape2DView
10
104.396922
20
12.570779
11
103.904411
21
12.238998
0
LINE
8
Shape2DView
10
103.904411
20
12.238998
11
103.572131
21
11.746823
0
LINE
8
Shape2DView
10
103.572131
20
11.746823
11
103.449873
21
11.143998
0
LINE
8
Shape2DView
10
103.449873
20
11.143998
11
103.572131
21
10.541172
0
LINE
8
Shape2DView
10
103.572131
20
10.541172
11
103.904411
21
10.048998
0
LINE
8
Shape2DView
10
103.904411
20
10.048998
11
104.396922
21
9.717216
0
LINE
8
Shape2DView
10
104.396922
20
9.717216
11
104.999871
21
9.595568
0
LINE
8
Shape2DView
10
104.999871
20
9.595568
11
105.602820
21
9.717216
0
LINE
8
Shape2DView
10
105.602820
20
9.717216
11
106.095330
21
10.048998
0
LINE
8
Shape2DView
10
106.095330
20
10.048998
11
106.427610
21
10.541172
0
LINE
8
Shape2DView
10
106.427610
20
10.541172
11
106.549868
21
11.143998
0
LINE
8
Shape2DView
10
106.549868
20
11.143998
11
106.549868
21
11.143998
0
LINE
8
Shape2DView
10
106.549868
20
53.972376
11
106.427610
21
54.575201
0
LINE
8
Shape2DView
10
106.427610
20
54.575201
11
106.095330
21
55.067376
0
LINE
8
Shape2DView
10
106.095330
20
55.067376
11
105.602820
21
55.399158
0
LINE
8
Shape2DView
10
105.602820
20
55.399158
11
104.999871
21
55.520805
0
LINE
8
Shape2DView
10
104.999871
20
55.520805
11
104.396922
21
55.399158
0
LINE
8
Shape2DView
10
104.396922
20
55.399158
11
103.904411
21
55.067376
0
LINE
8
Shape2DView
10
103.904411
20
55.067376
11
103.572131
21
54.575201
0
LINE
8
Shape2DView
10
103.572131
20
54.575201
11
103.449873
21
53.972376
0
LINE
8
Shape2DView
10
103.449873
20
53.972376
11
103.572131
21
53.369550
0
LINE
8
Shape2DView
10
103.572131
20
53.369550
11
103.904411
21
52.877376
0
LINE
8
Shape2DView
10
103.904411
20
52.877376
11
104.396922
21
52.545594
0
LINE
8
Shape2DView
10
104.396922
20
52.545594
11
104.999871
21
52.423946
0
LINE
8
Shape2DView
10
104.999871
20
52.423946
11
105.602820
21
52.545594
0
LINE
8
Shape2DView
10
105.602820
20
52.545594
11
106.095330
21
52.877376
0
LINE
8
Shape2DView
10
106.095330
20
52.877376
11
106.427610
21
53.369550
0
LINE
8
Shape2DView
10
106.427610
20
53.369550
11
106.549868
21
53.972376
0
LINE
8
Shape2DView
10
106.549868
20
53.972376
11
106.549868
21
53.972376
0
LINE
8
Shape2DView
10
13.721558
20
53.972376
11
13.599567
21
54.575500
0
LINE
8
Shape2DView
10
13.599567
20
54.575500
11
13.267348
21
55.067976
0
LINE
8
Shape2DView
10
13.267348
20
55.067976
11
12.774734
21
55.399992
0
LINE
8
Shape2DView
10
12.774734
20
55.399992
11
12.171560
21
55.521734
0
LINE
8
Shape2DView
10
12.171560
20
55.521734
11
11.568386
21
55.399992
0
LINE
8
Shape2DView
10
11.568386
20
55.399992
11
11.075772
21
55.067976
0
LINE
8
Shape2DView
10
11.075772
20
55.067976
11
10.743553
21
54.575500
0
LINE
8
Shape2DView
10
10.743553
20
54.575500
11
10.621562
21
53.972376
0
LINE
8
Shape2DView
10
10.621562
20
53.972376
11
10.743553
21
53.369252
0
LINE
8
Shape2DView
10
10.743553
20
53.369252
11
11.075772
21
52.876776
0
LINE
8
Shape2DView
10
11.075772
20
52.876776
11
11.568386
21
52.544760
0
LINE
8
Shape2DView
10
11.568386
20
52.544760
11
12.171560
21
52.423018
0
LINE
8
Shape2DView
10
12.171560
20
52.423018
11
12.774734
21
52.544760
0
LINE
8
Shape2DView
10
12.774734
20
52.544760
11
13.267348
21
52.876776
0
LINE
8
Shape2DView
10
13.267348
20
52.876776
11
13.599567
21
53.369252
0
LINE
8
Shape2DView
10
13.599567
20
53.369252
11
13.721558
21
53.972376
0
LINE
8
Shape2DView
10
13.721558
20
53.972376
11
13.721558
21
53.972376
0
LINE
8
Sternenbild
10
24.085879
20
51.807314
11
36.085865
21
51.807314
0
LINE
8
Sternenbild
10
36.085865
20
51.807314
11
36.851231
21
51.655074
0
LINE
8
Sternenbild
10
36.851231
20
51.655074
11
37.500076
21
51.221529
0
LINE
8
Sternenbild
10
37.500076
20
51.221529
11
37.933621
21
50.572683
0
LINE
8
Sternenbild
10
37.933621
20
50.572683
11
38.085862
21
49.807317
0
LINE
8
Sternenbild
10
38.085862
20
49.807317
11
38.085862
21
37.807332
0
LINE
8
Sternenbild
10
38.085862
20
37.807332
11
37.933621
21
37.041966
0
LINE
8
Sternenbild
10
37.933621
20
37.041966
11
37.500076
21
36.393120
0
LINE
8
Sternenbild
10
37.500076
20
36.393120
11
36.851231
21
35.959575
0
LINE
8
Sternenbild
10
36.851231
20
35.959575
11
36.085865
21
35.807334
0
LINE
8
Sternenbild
10
36.085865
20
35.807334
11
24.085879
21
35.807334
0
LINE
8
Sternenbild
10
24.085879
20
35.807334
11
23.320513
21
35.959575
0
LINE
8
Sternenbild
10
23.320513
20
35.959575
11
22.671667
21
36.393120
0
LINE
8
Sternenbild
10
22.671667
20
36.393120
11
22.238123
21
37.041966
0
LINE
8
Sternenbild
10
22.238123
20
37.041966
11
22.085882
21
37.807332
0
LINE
8
Sternenbild
10
22.085882
20
37.807332
11
22.085882
21
49.807317
0
LINE
8
Sternenbild
10
22.085882
20
49.807317
11
22.238123
21
50.572683
0
LINE
8
Sternenbild
10
22.238123
20
50.572683
11
22.671667
21
51.221529
0
LINE
8
Sternenbild
10
22.671667
20
51.221529
11
23.320513
21
51.655074
0
LINE
8
Sternenbild
10
23.320513
20
51.655074
11
24.085879
21
51.807314
0
LINE
8
Sternenbild
10
24.085879
20
51.807314
11
24.085879
21
51.807314
0
LINE
8
Sternenbild
10
43.085613
20
51.807296
11
55.085598
21
51.807296
0
LINE
8
Sternenbild
10
55.085598
20
51.807296
11
55.850964
21
51.655055
0
LINE
8
Sternenbild
10
55.850964
20
51.655055
11
56.499810
21
51.221510
0
LINE
8
Sternenbild
10
56.499810
20
51.221510
11
56.933355
21
50.572664
0
LINE
8
Sternenbild
10
56.933355
20
50.572664
11
57.085595
21
49.807298
0
LINE
8
Sternenbild
10
57.085595
20
49.807298
11
57.085595
21
37.807313
0
LINE
8
Sternenbild
10
57.085595
20
37.807313
11
56.933355
21
37.041947
0
LINE
8
Sternenbild
10
56.933355
20
37.041947
11
56.499810
21
36.393101
0
LINE
8
Sternenbild
10
56.499810
20
36.393101
11
55.850964
21
35.959556
0
LINE
8
Sternenbild
10
55.850964
20
35.959556
11
55.085598
21
35.807315
0
LINE
8
Sternenbild
10
55.085598
20
35.807315
11
43.085613
21
35.807315
0
LINE
8
Sternenbild
10
43.085613
20
35.807315
11
42.320247
21
35.959556
0
LINE
8
Sternenbild
10
42.320247
20
35.959556
11
41.671401
21
36.393101
0
LINE
8
Sternenbild
10
41.671401
20
36.393101
11
41.237856
21
37.041947
0
LINE
8
Sternenbild
10
41.237856
20
37.041947
11
41.085615
21
37.807313
0
LINE
8
Sternenbild
10
41.085615
20
37.807313
11
41.085615
21
49.807298
0
LINE
8
Sternenbild
10
41.085615
20
49.807298
11
41.237856
21
50.572664
0
LINE
8
Sternenbild
10
41.237856
20
50.572664
11
41.671401
21
51.221510
0
LINE
8
Sternenbild
10
41.671401
20
51.221510
11
42.320247
21
51.655055
0
LINE
8
Sternenbild
10
42.320247
20
51.655055
11
43.085613
21
51.807296
0
LINE
8
Sternenbild
10
43.085613
20
51.807296
11
43.085613
21
51.807296
0
LINE
8
Sternenbild
10
62.085588
20
51.807296
11
74.085573
21
51.807296
0
LINE
8
Sternenbild
10
74.085573
20
51.807296
11
74.850939
21
51.655055
0
LINE
8
Sternenbild
10
74.850939
20
51.655055
11
75.499785
21
51.221510
0
LINE
8
Sternenbild
10
75.499785
20
51.221510
11
75.933330
21
50.572664
0
LINE
8
Sternenbild
10
75.933330
20
50.572664
11
76.085571
21
49.807298
0
LINE
8
Sternenbild
10
76.085571
20
49.807298
11
76.085571
21
37.807313
0
LINE
8
Sternenbild
10
76.085571
20
37.807313
11
75.933330
21
37.041947
0
LINE
8
Sternenbild
10
75.933330
20
37.041947
11
75.499785
21
36.393101
0
LINE
8
Sternenbild
10
75.499785
20
36.393101
11
74.850939
21
35.959556
0
LINE
8
Sternenbild
10
74.850939
20
35.959556
11
74.085573
21
35.807315
0
LINE
8
Sternenbild
10
74.085573
20
35.807315
11
62.085588
21
35.807315
0
LINE
8
Sternenbild
10
62.085588
20
35.807315
11
61.320222
21
35.959556
0
LINE
8
Sternenbild
10
61.320222
20
35.959556
11
60.671376
21
36.393101
0
LINE
8
Sternenbild
10
60.671376
20
36.393101
11
60.237831
21
37.041947
0
LINE
8
Sternenbild
10
60.237831
20
37.041947
11
60.085590
21
37.807313
0
LINE
8
Sternenbild
10
60.085590
20
37.807313
11
60.085590
21
49.807298
0
LINE
8
Sternenbild
10
60.085590
20
49.807298
11
60.237831
21
50.572664
0
LINE
8
Sternenbild
10
60.237831
20
50.572664
11
60.671376
21
51.221510
0
LINE
8
Sternenbild
10
60.671376
20
51.221510
11
61.320222
21
51.655055
0
LINE
8
Sternenbild
10
61.320222
20
51.655055
11
62.085588
21
51.807296
0
LINE
8
Sternenbild
10
62.085588
20
51.807296
11
62.085588
21
51.807296
0
LINE
8
Sternenbild
10
81.085565
20
51.807296
11
93.085551
21
51.807296
0
LINE
8
Sternenbild
10
93.085551
20
51.807296
11
93.850917
21
51.655055
0
LINE
8
Sternenbild
10
93.850917
20
51.655055
11
94.499763
21
51.221510
0
LINE
8
Sternenbild
10
94.499763
20
51.221510
11
94.933308
21
50.572664
0
LINE
8
Sternenbild
10
94.933308
20
50.572664
11
95.085548
21
49.807298
0
LINE
8
Sternenbild
10
95.085548
20
49.807298
11
95.085548
21
37.807313
0
LINE
8
Sternenbild
10
95.085548
20
37.807313
11
94.933308
21
37.041947
0
LINE
8
Sternenbild
10
94.933308
20
37.041947
11
94.499763
21
36.393101
0
LINE
8
Sternenbild
10
94.499763
20
36.393101
11
93.850917
21
35.959556
0
LINE
8
Sternenbild
10
93.850917
20
35.959556
11
93.085551
21
35.807315
0
LINE
8
Sternenbild
10
93.085551
20
35.807315
11
81.085565
21
35.807315
0
LINE
8
Sternenbild
10
81.085565
20
35.807315
11
80.320200
21
35.959556
0
LINE
8
Sternenbild
10
80.320200
20
35.959556
11
79.671354
21
36.393101
0
LINE
8
Sternenbild
10
79.671354
20
36.393101
11
79.237809
21
37.041947
0
LINE
8
Sternenbild
10
79.237809
20
37.041947
11
79.085568
21
37.807313
0
LINE
8
Sternenbild
10
79.085568
20
37.807313
11
79.085568
21
49.807298
0
LINE
8
Sternenbild
10
79.085568
20
49.807298
11
79.237809
21
50.572664
0
LINE
8
Sternenbild
10
79.237809
20
50.572664
11
79.671354
21
51.221510
0
LINE
8
Sternenbild
10
79.671354
20
51.221510
11
80.320200
21
51.655055
0
LINE
8
Sternenbild
10
80.320200
20
51.655055
11
81.085565
21
51.807296
0
LINE
8
Sternenbild
10
81.085565
20
51.807296
11
81.085565
21
51.807296
0
LINE
8
Sternenbild
10
27.313543
20
49.185982
11
25.949224
21
48.227164
0
LINE
8
Sternenbild
10
25.949224
20
48.227164
11
24.913382
21
46.958293
0
LINE
8
Sternenbild
10
24.913382
20
46.958293
11
24.254545
21
45.458646
0
LINE
8
Sternenbild
10
24.254545
20
45.458646
11
24.021242
21
43.807505
0
LINE
8
Sternenbild
10
24.021242
20
43.807505
11
24.138782
21
42.618741
0
LINE
8
Sternenbild
10
24.138782
20
42.618741
11
24.482775
21
41.486488
0
LINE
8
Sternenbild
10
24.482775
20
41.486488
11
25.040045
21
40.442563
0
LINE
8
Sternenbild
10
25.040045
20
40.442563
11
25.797414
21
39.518786
0
LINE
8
Sternenbild
10
25.797414
20
39.518786
11
26.721127
21
38.761338
0
LINE
8
Sternenbild
10
26.721127
20
38.761338
11
27.765005
21
38.203979
0
LINE
8
Sternenbild
10
27.765005
20
38.203979
11
28.897229
21
37.859889
0
LINE
8
Sternenbild
10
28.897229
20
37.859889
11
30.085982
21
37.742249
0
LINE
8
Sternenbild
10
30.085982
20
37.742249
11
31.274734
21
37.859890
0
LINE
8
Sternenbild
10
31.274734
20
37.859890
11
32.406958
21
38.203980
0
LINE
8
Sternenbild
10
32.406958
20
38.203980
11
33.450835
21
38.761339
0
LINE
8
Sternenbild
10
33.450835
20
38.761339
11
34.374548
21
39.518786
0
LINE
8
Sternenbild
10
34.374548
20
39.518786
11
35.131916
21
40.442564
0
LINE
8
Sternenbild
10
35.131916
20
40.442564
11
35.689186
21
41.486489
0
LINE
8
Sternenbild
10
35.689186
20
41.486489
11
36.033179
21
42.618742
0
LINE
8
Sternenbild
10
36.033179
20
42.618742
11
36.150719
21
43.807505
0
LINE
8
Sternenbild
10
36.150719
20
43.807505
11
35.917322
21
45.458714
0
LINE
8
Sternenbild
10
35.917322
20
45.458714
11
35.258359
21
46.958388
0
LINE
8
Sternenbild
10
35.258359
20
46.958388
11
34.222372
21
48.227240
0
LINE
8
Sternenbild
10
34.222372
20
48.227240
11
32.857901
21
49.185982
0
LINE
8
Sternenbild
10
32.857901
20
49.185982
11
32.857901
21
48.049101
0
LINE
8
Sternenbild
10
32.857901
20
48.049101
11
33.823529
21
47.233052
0
LINE
8
Sternenbild
10
33.823529
20
47.233052
11
34.548757
21
46.220218
0
LINE
8
Sternenbild
10
34.548757
20
46.220218
11
35.005912
21
45.061426
0
LINE
8
Sternenbild
10
35.005912
20
45.061426
11
35.167319
21
43.807505
0
LINE
8
Sternenbild
10
35.167319
20
43.807505
11
35.068802
21
42.811546
0
LINE
8
Sternenbild
10
35.068802
20
42.811546
11
34.780559
21
41.862941
0
LINE
8
Sternenbild
10
34.780559
20
41.862941
11
34.313634
21
40.988346
0
LINE
8
Sternenbild
10
34.313634
20
40.988346
11
33.679067
21
40.214419
0
LINE
8
Sternenbild
10
33.679067
20
40.214419
11
32.905140
21
39.579852
0
LINE
8
Sternenbild
10
32.905140
20
39.579852
11
32.030545
21
39.112927
0
LINE
8
Sternenbild
10
32.030545
20
39.112927
11
31.081940
21
38.824685
0
LINE
8
Sternenbild
10
31.081940
20
38.824685
11
30.085982
21
38.726167
0
LINE
8
Sternenbild
10
30.085982
20
38.726167
11
29.090024
21
38.824685
0
LINE
8
Sternenbild
10
29.090024
20
38.824685
11
28.141418
21
39.112927
0
LINE
8
Sternenbild
10
28.141418
20
39.112927
11
27.266823
21
39.579852
0
LINE
8
Sternenbild
10
27.266823
20
39.579852
11
26.492896
21
40.214419
0
LINE
8
Sternenbild
10
26.492896
20
40.214419
11
25.858329
21
40.988346
0
LINE
8
Sternenbild
10
25.858329
20
40.988346
11
25.391404
21
41.862941
0
LINE
8
Sternenbild
10
25.391404
20
41.862941
11
25.103162
21
42.811546
0
LINE
8
Sternenbild
10
25.103162
20
42.811546
11
25.004644
21
43.807505
0
LINE
8
Sternenbild
10
25.004644
20
43.807505
11
25.165950
21
45.061367
0
LINE
8
Sternenbild
10
25.165950
20
45.061367
11
25.622978
21
46.220135
0
LINE
8
Sternenbild
10
25.622978
20
46.220135
11
26.348064
21
47.232987
0
LINE
8
Sternenbild
10
26.348064
20
47.232987
11
27.313543
21
48.049101
0
LINE
8
Sternenbild
10
27.313543
20
48.049101
11
27.313543
21
49.185982
0
LINE
8
Sternenbild
10
27.313543
20
49.185982
11
27.313543
21
49.185982
0
LINE
8
Sternenbild
10
29.556816
20
50.210805
11
30.615148
21
50.210805
0
LINE
8
Sternenbild
10
30.615148
20
50.210805
11
30.615148
21
43.596230
0
LINE
8
Sternenbild
10
30.615148
20
43.596230
11
29.556816
21
43.596230
0
LINE
8
Sternenbild
10
29.556816
20
43.596230
11
29.556816
21
50.210805
0
LINE
8
Sternenbild
10
49.085830
20
49.971979
11
47.843475
21
49.846735
0
LINE
8
Sternenbild
10
47.843475
20
49.846735
11
46.686342
21
49.487538
0
LINE
8
Sternenbild
10
46.686342
20
49.487538
11
45.639219
21
48.919177
0
LINE
8
Sternenbild
10
45.639219
20
48.919177
11
44.726895
21
48.166440
0
LINE
8
Sternenbild
10
44.726895
20
48.166440
11
43.974158
21
47.254116
0
LINE
8
Sternenbild
10
43.974158
20
47.254116
11
43.405797
21
46.206992
0
LINE
8
Sternenbild
10
43.405797
20
46.206992
11
43.046601
21
45.049859
0
LINE
8
Sternenbild
10
43.046601
20
45.049859
11
42.921358
21
43.807505
0
LINE
8
Sternenbild
10
42.921358
20
43.807505
11
43.046601
21
42.565150
0
LINE
8
Sternenbild
10
43.046601
20
42.565150
11
43.405797
21
41.408017
0
LINE
8
Sternenbild
10
43.405797
20
41.408017
11
43.974158
21
40.360894
0
LINE
8
Sternenbild
10
43.974158
20
40.360894
11
44.726895
21
39.448569
0
LINE
8
Sternenbild
10
44.726895
20
39.448569
11
45.639219
21
38.695832
0
LINE
8
Sternenbild
10
45.639219
20
38.695832
11
46.686342
21
38.127471
0
LINE
8
Sternenbild
10
46.686342
20
38.127471
11
47.843475
21
37.768274
0
LINE
8
Sternenbild
10
47.843475
20
37.768274
11
49.085830
21
37.643030
0
LINE
8
Sternenbild
10
49.085830
20
37.643030
11
50.328185
21
37.768273
0
LINE
8
Sternenbild
10
50.328185
20
37.768273
11
51.485318
21
38.127470
0
LINE
8
Sternenbild
10
51.485318
20
38.127470
11
52.532442
21
38.695831
0
LINE
8
Sternenbild
10
52.532442
20
38.695831
11
53.444766
21
39.448568
0
LINE
8
Sternenbild
10
53.444766
20
39.448568
11
54.197503
21
40.360893
0
LINE
8
Sternenbild
10
54.197503
20
40.360893
11
54.765864
21
41.408016
0
LINE
8
Sternenbild
10
54.765864
20
41.408016
11
55.125061
21
42.565149
0
LINE
8
Sternenbild
10
55.125061
20
42.565149
11
55.250304
21
43.807505
0
LINE
8
Sternenbild
10
55.250304
20
43.807505
11
55.125061
21
45.049860
0
LINE
8
Sternenbild
10
55.125061
20
45.049860
11
54.765864
21
46.206993
0
LINE
8
Sternenbild
10
54.765864
20
46.206993
11
54.197503
21
47.254116
0
LINE
8
Sternenbild
10
54.197503
20
47.254116
11
53.444766
21
48.166441
0
LINE
8
Sternenbild
10
53.444766
20
48.166441
11
52.532442
21
48.919178
0
LINE
8
Sternenbild
10
52.532442
20
48.919178
11
51.485318
21
49.487539
0
LINE
8
Sternenbild
10
51.485318
20
49.487539
11
50.328185
21
49.846736
0
LINE
8
Sternenbild
10
50.328185
20
49.846736
11
49.085830
21
49.971979
0
LINE
8
Sternenbild
10
49.085830
20
49.971979
11
49.085830
21
49.971979
0
LINE
8
Sternenbild
10
49.085830
20
48.987545
11
50.129752
21
48.882235
0
LINE
8
Sternenbild
10
50.129752
20
48.882235
11
51.102063
21
48.580361
0
LINE
8
Sternenbild
10
51.102063
20
48.580361
11
51.981937
21
48.102749
0
LINE
8
Sternenbild
10
51.981937
20
48.102749
11
52.748550
21
47.470224
0
LINE
8
Sternenbild
10
52.748550
20
47.470224
11
53.381075
21
46.703612
0
LINE
8
Sternenbild
10
53.381075
20
46.703612
11
53.858687
21
45.823738
0
LINE
8
Sternenbild
10
53.858687
20
45.823738
11
54.160560
21
44.851427
0
LINE
8
Sternenbild
10
54.160560
20
44.851427
11
54.265870
21
43.807505
0
LINE
8
Sternenbild
10
54.265870
20
43.807505
11
54.160650
21
42.763502
0
LINE
8
Sternenbild
10
54.160650
20
42.763502
11
53.858835
21
41.791106
0
LINE
8
Sternenbild
10
53.858835
20
41.791106
11
53.381253
21
40.911145
0
LINE
8
Sternenbild
10
53.381253
20
40.911145
11
52.748732
21
40.144451
0
LINE
8
Sternenbild
10
52.748732
20
40.144451
11
51.982101
21
39.511854
0
LINE
8
Sternenbild
10
51.982101
20
39.511854
11
51.102188
21
39.034184
0
LINE
8
Sternenbild
10
51.102188
20
39.034184
11
50.129821
21
38.732272
0
LINE
8
Sternenbild
10
50.129821
20
38.732272
11
49.085830
21
38.626948
0
LINE
8
Sternenbild
10
49.085830
20
38.626948
11
48.070427
21
38.727395
0
LINE
8
Sternenbild
10
48.070427
20
38.727395
11
47.103302
21
39.021269
0
LINE
8
Sternenbild
10
47.103302
20
39.021269
11
46.211632
21
39.497313
0
LINE
8
Sternenbild
10
46.211632
20
39.497313
11
45.422596
21
40.144270
0
LINE
8
Sternenbild
10
45.422596
20
40.144270
11
44.775639
21
40.933307
0
LINE
8
Sternenbild
10
44.775639
20
40.933307
11
44.299595
21
41.824977
0
LINE
8
Sternenbild
10
44.299595
20
41.824977
11
44.005722
21
42.792102
0
LINE
8
Sternenbild
10
44.005722
20
42.792102
11
43.905276
21
43.807505
0
LINE
8
Sternenbild
10
43.905276
20
43.807505
11
44.010600
21
44.851496
0
LINE
8
Sternenbild
10
44.010600
20
44.851496
11
44.312512
21
45.823862
0
LINE
8
Sternenbild
10
44.312512
20
45.823862
11
44.790181
21
46.703775
0
LINE
8
Sternenbild
10
44.790181
20
46.703775
11
45.422778
21
47.470406
0
LINE
8
Sternenbild
10
45.422778
20
47.470406
11
46.189472
21
48.102927
0
LINE
8
Sternenbild
10
46.189472
20
48.102927
11
47.069432
21
48.580509
0
LINE
8
Sternenbild
10
47.069432
20
48.580509
11
48.041828
21
48.882325
0
LINE
8
Sternenbild
10
48.041828
20
48.882325
11
49.085830
21
48.987545
0
LINE
8
Sternenbild
10
49.085830
20
48.987545
11
49.085830
21
48.987545
0
LINE
8
Sternenbild
10
50.470067
20
40.655585
11
50.122802
21
41.899951
0
LINE
8
Sternenbild
10
50.122802
20
41.899951
11
47.923458
21
41.899951
0
LINE
8
Sternenbild
10
47.923458
20
41.899951
11
47.566547
21
40.655585
0
LINE
8
Sternenbild
10
47.566547
20
40.655585
11
46.389705
21
40.655585
0
LINE
8
Sternenbild
10
46.389705
20
40.655585
11
48.256254
21
46.959408
0
LINE
8
Sternenbild
10
48.256254
20
46.959408
11
49.915406
21
46.959408
0
LINE
8
Sternenbild
10
49.915406
20
46.959408
11
51.781957
21
40.655585
0
LINE
8
Sternenbild
10
51.781957
20
40.655585
11
50.470067
21
40.655585
0
LINE
8
Sternenbild
10
49.037599
20
45.801857
11
48.208023
21
42.869399
0
LINE
8
Sternenbild
10
48.208023
20
42.869399
11
49.857528
21
42.869399
0
LINE
8
Sternenbild
10
49.857528
20
42.869399
11
49.037599
21
45.801857
0
LINE
8
Sternenbild
10
68.085577
20
49.971780
11
66.843223
21
49.846537
0
LINE
8
Sternenbild
10
66.843223
20
49.846537
11
65.686090
21
49.487340
0
LINE
8
Sternenbild
10
65.686090
20
49.487340
11
64.638967
21
48.918979
0
LINE
8
Sternenbild
10
64.638967
20
48.918979
11
63.726643
21
48.166242
0
LINE
8
Sternenbild
10
63.726643
20
48.166242
11
62.973906
21
47.253917
0
LINE
8
Sternenbild
10
62.973906
20
47.253917
11
62.405545
21
46.206794
0
LINE
8
Sternenbild
10
62.405545
20
46.206794
11
62.046349
21
45.049661
0
LINE
8
Sternenbild
10
62.046349
20
45.049661
11
61.921106
21
43.807306
0
LINE
8
Sternenbild
10
61.921106
20
43.807306
11
62.046349
21
42.564951
0
LINE
8
Sternenbild
10
62.046349
20
42.564951
11
62.405545
21
41.407818
0
LINE
8
Sternenbild
10
62.405545
20
41.407818
11
62.973906
21
40.360695
0
LINE
8
Sternenbild
10
62.973906
20
40.360695
11
63.726643
21
39.448371
0
LINE
8
Sternenbild
10
63.726643
20
39.448371
11
64.638967
21
38.695633
0
LINE
8
Sternenbild
10
64.638967
20
38.695633
11
65.686090
21
38.127272
0
LINE
8
Sternenbild
10
65.686090
20
38.127272
11
66.843223
21
37.768075
0
LINE
8
Sternenbild
10
66.843223
20
37.768075
11
68.085577
21
37.642832
0
LINE
8
Sternenbild
10
68.085577
20
37.642832
11
69.327932
21
37.768075
0
LINE
8
Sternenbild
10
69.327932
20
37.768075
11
70.485066
21
38.127271
0
LINE
8
Sternenbild
10
70.485066
20
38.127271
11
71.532189
21
38.695633
0
LINE
8
Sternenbild
10
71.532189
20
38.695633
11
72.444514
21
39.448370
0
LINE
8
Sternenbild
10
72.444514
20
39.448370
11
73.197251
21
40.360694
0
LINE
8
Sternenbild
10
73.197251
20
40.360694
11
73.765612
21
41.407818
0
LINE
8
Sternenbild
10
73.765612
20
41.407818
11
74.124808
21
42.564951
0
LINE
8
Sternenbild
10
74.124808
20
42.564951
11
74.250052
21
43.807306
0
LINE
8
Sternenbild
10
74.250052
20
43.807306
11
74.124808
21
45.049661
0
LINE
8
Sternenbild
10
74.124808
20
45.049661
11
73.765612
21
46.206795
0
LINE
8
Sternenbild
10
73.765612
20
46.206795
11
73.197251
21
47.253918
0
LINE
8
Sternenbild
10
73.197251
20
47.253918
11
72.444514
21
48.166243
0
LINE
8
Sternenbild
10
72.444514
20
48.166243
11
71.532189
21
48.918980
0
LINE
8
Sternenbild
10
71.532189
20
48.918980
11
70.485066
21
49.487341
0
LINE
8
Sternenbild
10
70.485066
20
49.487341
11
69.327932
21
49.846537
0
LINE
8
Sternenbild
10
69.327932
20
49.846537
11
68.085577
21
49.971780
0
LINE
8
Sternenbild
10
68.085577
20
49.971780
11
68.085577
21
49.971780
0
LINE
8
Sternenbild
10
68.085577
20
48.987346
11
69.129499
21
48.882037
0
LINE
8
Sternenbild
10
69.129499
20
48.882037
11
70.101810
21
48.580163
0
LINE
8
Sternenbild
10
70.101810
20
48.580163
11
70.981685
21
48.102551
0
LINE
8
Sternenbild
10
70.981685
20
48.102551
11
71.748297
21
47.470026
0
LINE
8
Sternenbild
10
71.748297
20
47.470026
11
72.380822
21
46.703414
0
LINE
8
Sternenbild
10
72.380822
20
46.703414
11
72.858434
21
45.823539
0
LINE
8
Sternenbild
10
72.858434
20
45.823539
11
73.160308
21
44.851228
0
LINE
8
Sternenbild
10
73.160308
20
44.851228
11
73.265618
21
43.807306
0
LINE
8
Sternenbild
10
73.265618
20
43.807306
11
73.160398
21
42.763304
0
LINE
8
Sternenbild
10
73.160398
20
42.763304
11
72.858583
21
41.790907
0
LINE
8
Sternenbild
10
72.858583
20
41.790907
11
72.381000
21
40.910947
0
LINE
8
Sternenbild
10
72.381000
20
40.910947
11
71.748480
21
40.144253
0
LINE
8
Sternenbild
10
71.748480
20
40.144253
11
70.981848
21
39.511655
0
LINE
8
Sternenbild
10
70.981848
20
39.511655
11
70.101935
21
39.033986
0
LINE
8
Sternenbild
10
70.101935
20
39.033986
11
69.129569
21
38.732074
0
LINE
8
Sternenbild
10
69.129569
20
38.732074
11
68.085577
21
38.626750
0
LINE
8
Sternenbild
10
68.085577
20
38.626750
11
67.070175
21
38.727196
0
LINE
8
Sternenbild
10
67.070175
20
38.727196
11
66.103050
21
39.021070
0
LINE
8
Sternenbild
10
66.103050
20
39.021070
11
65.211380
21
39.497114
0
LINE
8
Sternenbild
10
65.211380
20
39.497114
11
64.422343
21
40.144071
0
LINE
8
Sternenbild
10
64.422343
20
40.144071
11
63.775387
21
40.933108
0
LINE
8
Sternenbild
10
63.775387
20
40.933108
11
63.299343
21
41.824778
0
LINE
8
Sternenbild
10
63.299343
20
41.824778
11
63.005470
21
42.791903
0
LINE
8
Sternenbild
10
63.005470
20
42.791903
11
62.905024
21
43.807306
0
LINE
8
Sternenbild
10
62.905024
20
43.807306
11
63.010347
21
44.851297
0
LINE
8
Sternenbild
10
63.010347
20
44.851297
11
63.312259
21
45.823664
0
LINE
8
Sternenbild
10
63.312259
20
45.823664
11
63.789929
21
46.703576
0
LINE
8
Sternenbild
10
63.789929
20
46.703576
11
64.422526
21
47.470207
0
LINE
8
Sternenbild
10
64.422526
20
47.470207
11
65.189219
21
48.102728
0
LINE
8
Sternenbild
10
65.189219
20
48.102728
11
66.069179
21
48.580311
0
LINE
8
Sternenbild
10
66.069179
20
48.580311
11
67.041576
21
48.882126
0
LINE
8
Sternenbild
10
67.041576
20
48.882126
11
68.085577
21
48.987346
0
LINE
8
Sternenbild
10
68.085577
20
48.987346
11
68.085577
21
48.987346
0
LINE
8
Sternenbild
10
65.866943
20
40.655392
11
65.866943
21
46.959215
0
LINE
8
Sternenbild
10
65.866943
20
46.959215
11
67.902301
21
46.959215
0
LINE
8
Sternenbild
10
67.902301
20
46.959215
11
68.842810
21
46.865163
0
LINE
8
Sternenbild
10
68.842810
20
46.865163
11
69.513225
21
46.583009
0
LINE
8
Sternenbild
10
69.513225
20
46.583009
11
69.918366
21
46.110344
0
LINE
8
Sternenbild
10
69.918366
20
46.110344
11
70.053413
21
45.444755
0
LINE
8
Sternenbild
10
70.053413
20
45.444755
11
69.995536
21
44.981734
0
LINE
8
Sternenbild
10
69.995536
20
44.981734
11
69.826727
21
44.571768
0
LINE
8
Sternenbild
10
69.826727
20
44.571768
11
69.537342
21
44.238973
0
LINE
8
Sternenbild
10
69.537342
20
44.238973
11
69.127376
21
44.012286
0
LINE
8
Sternenbild
10
69.127376
20
44.012286
11
69.575926
21
43.857945
0
LINE
8
Sternenbild
10
69.575926
20
43.857945
11
69.952128
21
43.563736
0
LINE
8
Sternenbild
10
69.952128
20
43.563736
11
70.207755
21
43.139300
0
LINE
8
Sternenbild
10
70.207755
20
43.139300
11
70.304217
21
42.589465
0
LINE
8
Sternenbild
10
70.304217
20
42.589465
11
70.142642
21
41.744212
0
LINE
8
Sternenbild
10
70.142642
20
41.744212
11
69.657917
21
41.137703
0
LINE
8
Sternenbild
10
69.657917
20
41.137703
11
68.868132
21
40.775970
0
LINE
8
Sternenbild
10
68.868132
20
40.775970
11
67.791369
21
40.655392
0
LINE
8
Sternenbild
10
67.791369
20
40.655392
11
65.866943
21
40.655392
0
LINE
8
Sternenbild
10
68.818694
20
45.237359
11
68.760817
21
45.560507
0
LINE
8
Sternenbild
10
68.760817
20
45.560507
11
68.572717
21
45.806487
0
LINE
8
Sternenbild
10
68.572717
20
45.806487
11
68.244743
21
45.960826
0
LINE
8
Sternenbild
10
68.244743
20
45.960826
11
67.762432
21
46.018704
0
LINE
8
Sternenbild
10
67.762432
20
46.018704
11
67.043784
21
46.018704
0
LINE
8
Sternenbild
10
67.043784
20
46.018704
11
67.043784
21
44.349905
0
LINE
8
Sternenbild
10
67.043784
20
44.349905
11
67.762432
21
44.349905
0
LINE
8
Sternenbild
10
67.762432
20
44.349905
11
68.249566
21
44.417429
0
LINE
8
Sternenbild
10
68.249566
20
44.417429
11
68.577538
21
44.610353
0
LINE
8
Sternenbild
10
68.577538
20
44.610353
11
68.760817
21
44.894917
0
LINE
8
Sternenbild
10
68.760817
20
44.894917
11
68.818694
21
45.237359
0
LINE
8
Sternenbild
10
68.818694
20
45.237359
11
68.818694
21
45.237359
0
LINE
8
Sternenbild
10
67.873363
20
41.624840
11
68.370144
21
41.697185
0
LINE
8
Sternenbild
10
68.370144
20
41.697185
11
68.731879
21
41.894935
0
LINE
8
Sternenbild
10
68.731879
20
41.894935
11
68.948920
21
42.198792
0
LINE
8
Sternenbild
10
68.948920
20
42.198792
11
69.026090
21
42.570172
0
LINE
8
Sternenbild
10
69.026090
20
42.570172
11
68.948920
21
42.935524
0
LINE
8
Sternenbild
10
68.948920
20
42.935524
11
68.717409
21
43.211648
0
LINE
8
Sternenbild
10
68.717409
20
43.211648
11
68.331559
21
43.385280
0
LINE
8
Sternenbild
10
68.331559
20
43.385280
11
67.781722
21
43.443158
0
LINE
8
Sternenbild
10
67.781722
20
43.443158
11
67.043784
21
43.443158
0
LINE
8
Sternenbild
10
67.043784
20
43.443158
11
67.043784
21
41.624840
0
LINE
8
Sternenbild
10
67.043784
20
41.624840
11
67.873363
21
41.624840
0
LINE
8
Sternenbild
10
87.085558
20
49.971780
11
85.843203
21
49.846537
0
LINE
8
Sternenbild
10
85.843203
20
49.846537
11
84.686070
21
49.487340
0
LINE
8
Sternenbild
10
84.686070
20
49.487340
11
83.638947
21
48.918979
0
LINE
8
Sternenbild
10
83.638947
20
48.918979
11
82.726623
21
48.166242
0
LINE
8
Sternenbild
10
82.726623
20
48.166242
11
81.973886
21
47.253917
0
LINE
8
Sternenbild
10
81.973886
20
47.253917
11
81.405525
21
46.206794
0
LINE
8
Sternenbild
10
81.405525
20
46.206794
11
81.046329
21
45.049661
0
LINE
8
Sternenbild
10
81.046329
20
45.049661
11
80.921086
21
43.807306
0
LINE
8
Sternenbild
10
80.921086
20
43.807306
11
81.046329
21
42.564951
0
LINE
8
Sternenbild
10
81.046329
20
42.564951
11
81.405525
21
41.407818
0
LINE
8
Sternenbild
10
81.405525
20
41.407818
11
81.973886
21
40.360695
0
LINE
8
Sternenbild
10
81.973886
20
40.360695
11
82.726623
21
39.448371
0
LINE
8
Sternenbild
10
82.726623
20
39.448371
11
83.638947
21
38.695633
0
LINE
8
Sternenbild
10
83.638947
20
38.695633
11
84.686070
21
38.127272
0
LINE
8
Sternenbild
10
84.686070
20
38.127272
11
85.843203
21
37.768075
0
LINE
8
Sternenbild
10
85.843203
20
37.768075
11
87.085558
21
37.642832
0
LINE
8
Sternenbild
10
87.085558
20
37.642832
11
88.327913
21
37.768075
0
LINE
8
Sternenbild
10
88.327913
20
37.768075
11
89.485046
21
38.127271
0
LINE
8
Sternenbild
10
89.485046
20
38.127271
11
90.532170
21
38.695633
0
LINE
8
Sternenbild
10
90.532170
20
38.695633
11
91.444494
21
39.448370
0
LINE
8
Sternenbild
10
91.444494
20
39.448370
11
92.197231
21
40.360694
0
LINE
8
Sternenbild
10
92.197231
20
40.360694
11
92.765592
21
41.407818
0
LINE
8
Sternenbild
10
92.765592
20
41.407818
11
93.124789
21
42.564951
0
LINE
8
Sternenbild
10
93.124789
20
42.564951
11
93.250032
21
43.807306
0
LINE
8
Sternenbild
10
93.250032
20
43.807306
11
93.124789
21
45.049661
0
LINE
8
Sternenbild
10
93.124789
20
45.049661
11
92.765592
21
46.206795
0
LINE
8
Sternenbild
10
92.765592
20
46.206795
11
92.197231
21
47.253918
0
LINE
8
Sternenbild
10
92.197231
20
47.253918
11
91.444494
21
48.166243
0
LINE
8
Sternenbild
10
91.444494
20
48.166243
11
90.532170
21
48.918980
0
LINE
8
Sternenbild
10
90.532170
20
48.918980
11
89.485046
21
49.487341
0
LINE
8
Sternenbild
10
89.485046
20
49.487341
11
88.327913
21
49.846537
0
LINE
8
Sternenbild
10
88.327913
20
49.846537
11
87.085558
21
49.971780
0
LINE
8
Sternenbild
10
87.085558
20
49.971780
11
87.085558
21
49.971780
0
LINE
8
Sternenbild
10
87.085558
20
48.987346
11
88.129480
21
48.882037
0
LINE
8
Sternenbild
10
88.129480
20
48.882037
11
89.101791
21
48.580163
0
LINE
8
Sternenbild
10
89.101791
20
48.580163
11
89.981665
21
48.102551
0
LINE
8
Sternenbild
10
89.981665
20
48.102551
11
90.748278
21
47.470026
0
LINE
8
Sternenbild
10
90.748278
20
47.470026
11
91.380803
21
46.703414
0
LINE
8
Sternenbild
10
91.380803
20
46.703414
11
91.858415
21
45.823539
0
LINE
8
Sternenbild
10
91.858415
20
45.823539
11
92.160288
21
44.851228
0
LINE
8
Sternenbild
10
92.160288
20
44.851228
11
92.265598
21
43.807306
0
LINE
8
Sternenbild
10
92.265598
20
43.807306
11
92.160378
21
42.763304
0
LINE
8
Sternenbild
10
92.160378
20
42.763304
11
91.858563
21
41.790907
0
LINE
8
Sternenbild
10
91.858563
20
41.790907
11
91.380981
21
40.910947
0
LINE
8
Sternenbild
10
91.380981
20
40.910947
11
90.748460
21
40.144253
0
LINE
8
Sternenbild
10
90.748460
20
40.144253
11
89.981829
21
39.511655
0
LINE
8
Sternenbild
10
89.981829
20
39.511655
11
89.101916
21
39.033986
0
LINE
8
Sternenbild
10
89.101916
20
39.033986
11
88.129549
21
38.732074
0
LINE
8
Sternenbild
10
88.129549
20
38.732074
11
87.085558
21
38.626750
0
LINE
8
Sternenbild
10
87.085558
20
38.626750
11
86.070155
21
38.727196
0
LINE
8
Sternenbild
10
86.070155
20
38.727196
11
85.103030
21
39.021070
0
LINE
8
Sternenbild
10
85.103030
20
39.021070
11
84.211360
21
39.497114
0
LINE
8
Sternenbild
10
84.211360
20
39.497114
11
83.422324
21
40.144071
0
LINE
8
Sternenbild
10
83.422324
20
40.144071
11
82.775367
21
40.933108
0
LINE
8
Sternenbild
10
82.775367
20
40.933108
11
82.299323
21
41.824778
0
LINE
8
Sternenbild
10
82.299323
20
41.824778
11
82.005450
21
42.791903
0
LINE
8
Sternenbild
10
82.005450
20
42.791903
11
81.905004
21
43.807306
0
LINE
8
Sternenbild
10
81.905004
20
43.807306
11
82.010328
21
44.851297
0
LINE
8
Sternenbild
10
82.010328
20
44.851297
11
82.312240
21
45.823664
0
LINE
8
Sternenbild
10
82.312240
20
45.823664
11
82.789909
21
46.703576
0
LINE
8
Sternenbild
10
82.789909
20
46.703576
11
83.422506
21
47.470207
0
LINE
8
Sternenbild
10
83.422506
20
47.470207
11
84.189200
21
48.102728
0
LINE
8
Sternenbild
10
84.189200
20
48.102728
11
85.069160
21
48.580311
0
LINE
8
Sternenbild
10
85.069160
20
48.580311
11
86.041556
21
48.882126
0
LINE
8
Sternenbild
10
86.041556
20
48.882126
11
87.085558
21
48.987346
0
LINE
8
Sternenbild
10
87.085558
20
48.987346
11
87.085558
21
48.987346
0
LINE
8
Sternenbild
10
88.836126
20
40.901370
11
88.021017
21
40.650569
0
LINE
8
Sternenbild
10
88.021017
20
40.650569
11
87.205909
21
40.568575
0
LINE
8
Sternenbild
10
87.205909
20
40.568575
11
86.000130
21
40.766324
0
LINE
8
Sternenbild
10
86.000130
20
40.766324
11
85.117497
21
41.364390
0
LINE
8
Sternenbild
10
85.117497
20
41.364390
11
84.572485
21
42.343485
0
LINE
8
Sternenbild
10
84.572485
20
42.343485
11
84.389206
21
43.708429
0
LINE
8
Sternenbild
10
84.389206
20
43.708429
11
84.591776
21
45.121604
0
LINE
8
Sternenbild
10
84.591776
20
45.121604
11
85.170551
21
46.168223
0
LINE
8
Sternenbild
10
85.170551
20
46.168223
11
86.082121
21
46.819343
0
LINE
8
Sternenbild
10
86.082121
20
46.819343
11
87.292726
21
47.046030
0
LINE
8
Sternenbild
10
87.292726
20
47.046030
11
87.697869
21
47.036399
0
LINE
8
Sternenbild
10
87.697869
20
47.036399
11
88.074072
21
46.997812
0
LINE
8
Sternenbild
10
88.074072
20
46.997812
11
88.445453
21
46.930288
0
LINE
8
Sternenbild
10
88.445453
20
46.930288
11
88.836126
21
46.819356
0
LINE
8
Sternenbild
10
88.836126
20
46.819356
11
88.836126
21
45.642515
0
LINE
8
Sternenbild
10
88.836126
20
45.642515
11
88.054778
21
45.917432
0
LINE
8
Sternenbild
10
88.054778
20
45.917432
11
87.379541
21
45.999427
0
LINE
8
Sternenbild
10
87.379541
20
45.999427
11
86.612666
21
45.835441
0
LINE
8
Sternenbild
10
86.612666
20
45.835441
11
86.086945
21
45.382067
0
LINE
8
Sternenbild
10
86.086945
20
45.382067
11
85.787910
21
44.687537
0
LINE
8
Sternenbild
10
85.787910
20
44.687537
11
85.691449
21
43.804904
0
LINE
8
Sternenbild
10
85.691449
20
43.804904
11
85.787910
21
42.888513
0
LINE
8
Sternenbild
10
85.787910
20
42.888513
11
86.096591
21
42.208450
0
LINE
8
Sternenbild
10
86.096591
20
42.208450
11
86.627136
21
41.779193
0
LINE
8
Sternenbild
10
86.627136
20
41.779193
11
87.394011
21
41.634500
0
LINE
8
Sternenbild
10
87.394011
20
41.634500
11
87.736453
21
41.663438
0
LINE
8
Sternenbild
10
87.736453
20
41.663438
11
88.112656
21
41.745432
0
LINE
8
Sternenbild
10
88.112656
20
41.745432
11
88.488861
21
41.866010
0
LINE
8
Sternenbild
10
88.488861
20
41.866010
11
88.836126
21
42.010703
0
LINE
8
Sternenbild
10
88.836126
20
42.010703
11
88.836126
21
40.901370
 0 
ENDSEC
 0 
EOF