999
"DXF R12 Output" (www.mydxf.blogspot.com)
 0 
SECTION
 2 
HEADER
 9 
$ACADVER
 1 
AC1009
 9 
$EXTMIN
 10 
 0 
 20 
 0 
 9 
$EXTMAX
 10 
 8.5 
 20 
 11 
 0 
ENDSEC
 0 
SECTION
 2 
ENTITIES
0
LINE
8
Layer 1
10
0.793749
20
297.793749
11
-0.793749
21
296.206251
0
LINE
8
Layer 1
10
0.000000
20
298.322915
11
0.000000
21
295.677085
0
LINE
8
Layer 1
10
2.116664
20
295.941668
11
1.058332
21
294.883336
0
LINE
8
Layer 1
10
1.587498
20
296.470834
11
0.529166
21
295.412502
0
LINE
8
Layer 1
10
1.058332
20
297.000000
11
0.000000
21
295.941668
0
LINE
8
Shape2DView
10
50.499899
20
-19.999538
11
50.499899
21
20.000120
0
LINE
8
Shape2DView
10
50.499936
20
20.000349
11
50.393279
21
21.078355
0
LINE
8
Shape2DView
10
50.393279
20
21.078355
11
50.081274
21
22.105105
0
LINE
8
Shape2DView
10
50.081274
20
22.105105
11
49.575873
21
23.051748
0
LINE
8
Shape2DView
10
49.575873
20
23.051748
11
48.889026
21
23.889431
0
LINE
8
Shape2DView
10
48.889026
20
23.889431
11
48.051342
21
24.576279
0
LINE
8
Shape2DView
10
48.051342
20
24.576279
11
47.104700
21
25.081680
0
LINE
8
Shape2DView
10
47.104700
20
25.081680
11
46.077949
21
25.393685
0
LINE
8
Shape2DView
10
46.077949
20
25.393685
11
44.999943
21
25.500342
0
LINE
8
Shape2DView
10
45.000012
20
25.500800
11
-45.000012
21
25.500800
0
LINE
8
Shape2DView
10
44.999943
20
-25.499594
11
46.077949
21
-25.392936
0
LINE
8
Shape2DView
10
46.077949
20
-25.392936
11
47.104700
21
-25.080932
0
LINE
8
Shape2DView
10
47.104700
20
-25.080932
11
48.051342
21
-24.575530
0
LINE
8
Shape2DView
10
48.051342
20
-24.575530
11
48.889026
21
-23.888683
0
LINE
8
Shape2DView
10
48.889026
20
-23.888683
11
49.575873
21
-23.051000
0
LINE
8
Shape2DView
10
49.575873
20
-23.051000
11
50.081274
21
-22.104357
0
LINE
8
Shape2DView
10
50.081274
20
-22.104357
11
50.393279
21
-21.077607
0
LINE
8
Shape2DView
10
50.393279
20
-21.077607
11
50.499936
21
-19.999601
0
LINE
8
Shape2DView
10
-45.000012
20
-25.500219
11
45.000012
21
-25.500219
0
LINE
8
Shape2DView
10
-44.999943
20
25.500342
11
-46.077949
21
25.393685
0
LINE
8
Shape2DView
10
-46.077949
20
25.393685
11
-47.104700
21
25.081680
0
LINE
8
Shape2DView
10
-47.104700
20
25.081680
11
-48.051342
21
24.576279
0
LINE
8
Shape2DView
10
-48.051342
20
24.576279
11
-48.889026
21
23.889431
0
LINE
8
Shape2DView
10
-48.889026
20
23.889431
11
-49.575873
21
23.051748
0
LINE
8
Shape2DView
10
-49.575873
20
23.051748
11
-50.081274
21
22.105105
0
LINE
8
Shape2DView
10
-50.081274
20
22.105105
11
-50.393279
21
21.078355
0
LINE
8
Shape2DView
10
-50.393279
20
21.078355
11
-50.499936
21
20.000349
0
LINE
8
Shape2DView
10
-50.499899
20
20.000120
11
-50.499899
21
-19.999538
0
LINE
8
Shape2DView
10
-50.499936
20
-19.999601
11
-50.393279
21
-21.077607
0
LINE
8
Shape2DView
10
-50.393279
20
-21.077607
11
-50.081274
21
-22.104357
0
LINE
8
Shape2DView
10
-50.081274
20
-22.104357
11
-49.575873
21
-23.051000
0
LINE
8
Shape2DView
10
-49.575873
20
-23.051000
11
-48.889026
21
-23.888683
0
LINE
8
Shape2DView
10
-48.889026
20
-23.888683
11
-48.051342
21
-24.575530
0
LINE
8
Shape2DView
10
-48.051342
20
-24.575530
11
-47.104700
21
-25.080932
0
LINE
8
Shape2DView
10
-47.104700
20
-25.080932
11
-46.077949
21
-25.392936
0
LINE
8
Shape2DView
10
-46.077949
20
-25.392936
11
-44.999943
21
-25.499594
0
LINE
8
Shape2DView
10
-36.500019
20
-22.999909
11
36.500019
21
-22.999909
0
LINE
8
Shape2DView
10
36.499954
20
-22.999597
11
37.265320
21
-22.847356
0
LINE
8
Shape2DView
10
37.265320
20
-22.847356
11
37.914166
21
-22.413811
0
LINE
8
Shape2DView
10
37.914166
20
-22.413811
11
38.347711
21
-21.764965
0
LINE
8
Shape2DView
10
38.347711
20
-21.764965
11
38.499951
21
-20.999599
0
LINE
8
Shape2DView
10
38.500001
20
-20.999662
11
38.500001
21
-5.000328
0
LINE
8
Shape2DView
10
38.499951
20
-4.999620
11
38.347711
21
-4.234254
0
LINE
8
Shape2DView
10
38.347711
20
-4.234254
11
37.914166
21
-3.585408
0
LINE
8
Shape2DView
10
37.914166
20
-3.585408
11
37.265320
21
-3.151863
0
LINE
8
Shape2DView
10
37.265320
20
-3.151863
11
36.499954
21
-2.999622
0
LINE
8
Shape2DView
10
36.500019
20
-3.000080
11
-36.500019
21
-3.000080
0
LINE
8
Shape2DView
10
-36.499954
20
-2.999622
11
-37.265320
21
-3.151863
0
LINE
8
Shape2DView
10
-37.265320
20
-3.151863
11
-37.914166
21
-3.585408
0
LINE
8
Shape2DView
10
-37.914166
20
-3.585408
11
-38.347711
21
-4.234254
0
LINE
8
Shape2DView
10
-38.347711
20
-4.234254
11
-38.499951
21
-4.999620
0
LINE
8
Shape2DView
10
-38.500001
20
-5.000328
11
-38.500001
21
-20.999662
0
LINE
8
Shape2DView
10
-38.499951
20
-20.999599
11
-38.347711
21
-21.764965
0
LINE
8
Shape2DView
10
-38.347711
20
-21.764965
11
-37.914166
21
-22.413811
0
LINE
8
Shape2DView
10
-37.914166
20
-22.413811
11
-37.265320
21
-22.847356
0
LINE
8
Shape2DView
10
-37.265320
20
-22.847356
11
-36.499954
21
-22.999597
0
LINE
8
Shape2DView
10
-44.864157
20
-21.413812
11
-44.986148
21
-20.810689
0
LINE
8
Shape2DView
10
-44.986148
20
-20.810689
11
-45.318367
21
-20.318212
0
LINE
8
Shape2DView
10
-45.318367
20
-20.318212
11
-45.810981
21
-19.986196
0
LINE
8
Shape2DView
10
-45.810981
20
-19.986196
11
-46.414155
21
-19.864455
0
LINE
8
Shape2DView
10
-46.414155
20
-19.864455
11
-47.017329
21
-19.986196
0
LINE
8
Shape2DView
10
-47.017329
20
-19.986196
11
-47.509943
21
-20.318212
0
LINE
8
Shape2DView
10
-47.509943
20
-20.318212
11
-47.842162
21
-20.810689
0
LINE
8
Shape2DView
10
-47.842162
20
-20.810689
11
-47.964153
21
-21.413812
0
LINE
8
Shape2DView
10
-47.964153
20
-21.413812
11
-47.842162
21
-22.016936
0
LINE
8
Shape2DView
10
-47.842162
20
-22.016936
11
-47.509943
21
-22.509412
0
LINE
8
Shape2DView
10
-47.509943
20
-22.509412
11
-47.017329
21
-22.841428
0
LINE
8
Shape2DView
10
-47.017329
20
-22.841428
11
-46.414155
21
-22.963170
0
LINE
8
Shape2DView
10
-46.414155
20
-22.963170
11
-45.810981
21
-22.841428
0
LINE
8
Shape2DView
10
-45.810981
20
-22.841428
11
-45.318367
21
-22.509412
0
LINE
8
Shape2DView
10
-45.318367
20
-22.509412
11
-44.986148
21
-22.016936
0
LINE
8
Shape2DView
10
-44.986148
20
-22.016936
11
-44.864157
21
-21.413812
0
LINE
8
Shape2DView
10
-44.864157
20
-21.413812
11
-44.864157
21
-21.413812
0
LINE
8
Shape2DView
10
47.964153
20
-21.413812
11
47.842162
21
-20.810689
0
LINE
8
Shape2DView
10
47.842162
20
-20.810689
11
47.509943
21
-20.318212
0
LINE
8
Shape2DView
10
47.509943
20
-20.318212
11
47.017329
21
-19.986196
0
LINE
8
Shape2DView
10
47.017329
20
-19.986196
11
46.414155
21
-19.864455
0
LINE
8
Shape2DView
10
46.414155
20
-19.864455
11
45.810981
21
-19.986196
0
LINE
8
Shape2DView
10
45.810981
20
-19.986196
11
45.318367
21
-20.318212
0
LINE
8
Shape2DView
10
45.318367
20
-20.318212
11
44.986148
21
-20.810689
0
LINE
8
Shape2DView
10
44.986148
20
-20.810689
11
44.864157
21
-21.413812
0
LINE
8
Shape2DView
10
44.864157
20
-21.413812
11
44.986148
21
-22.016936
0
LINE
8
Shape2DView
10
44.986148
20
-22.016936
11
45.318367
21
-22.509412
0
LINE
8
Shape2DView
10
45.318367
20
-22.509412
11
45.810981
21
-22.841428
0
LINE
8
Shape2DView
10
45.810981
20
-22.841428
11
46.414155
21
-22.963170
0
LINE
8
Shape2DView
10
46.414155
20
-22.963170
11
47.017329
21
-22.841428
0
LINE
8
Shape2DView
10
47.017329
20
-22.841428
11
47.509943
21
-22.509412
0
LINE
8
Shape2DView
10
47.509943
20
-22.509412
11
47.842162
21
-22.016936
0
LINE
8
Shape2DView
10
47.842162
20
-22.016936
11
47.964153
21
-21.413812
0
LINE
8
Shape2DView
10
47.964153
20
-21.413812
11
47.964153
21
-21.413812
0
LINE
8
Shape2DView
10
47.964153
20
21.414561
11
47.842162
21
22.017684
0
LINE
8
Shape2DView
10
47.842162
20
22.017684
11
47.509943
21
22.510161
0
LINE
8
Shape2DView
10
47.509943
20
22.510161
11
47.017329
21
22.842177
0
LINE
8
Shape2DView
10
47.017329
20
22.842177
11
46.414155
21
22.963918
0
LINE
8
Shape2DView
10
46.414155
20
22.963918
11
45.810981
21
22.842177
0
LINE
8
Shape2DView
10
45.810981
20
22.842177
11
45.318367
21
22.510161
0
LINE
8
Shape2DView
10
45.318367
20
22.510161
11
44.986148
21
22.017684
0
LINE
8
Shape2DView
10
44.986148
20
22.017684
11
44.864157
21
21.414561
0
LINE
8
Shape2DView
10
44.864157
20
21.414561
11
44.986148
21
20.811437
0
LINE
8
Shape2DView
10
44.986148
20
20.811437
11
45.318367
21
20.318961
0
LINE
8
Shape2DView
10
45.318367
20
20.318961
11
45.810981
21
19.986945
0
LINE
8
Shape2DView
10
45.810981
20
19.986945
11
46.414155
21
19.865203
0
LINE
8
Shape2DView
10
46.414155
20
19.865203
11
47.017329
21
19.986945
0
LINE
8
Shape2DView
10
47.017329
20
19.986945
11
47.509943
21
20.318961
0
LINE
8
Shape2DView
10
47.509943
20
20.318961
11
47.842162
21
20.811437
0
LINE
8
Shape2DView
10
47.842162
20
20.811437
11
47.964153
21
21.414561
0
LINE
8
Shape2DView
10
47.964153
20
21.414561
11
47.964153
21
21.414561
0
LINE
8
Shape2DView
10
-44.864157
20
21.414561
11
-44.986148
21
22.017684
0
LINE
8
Shape2DView
10
-44.986148
20
22.017684
11
-45.318367
21
22.510161
0
LINE
8
Shape2DView
10
-45.318367
20
22.510161
11
-45.810981
21
22.842177
0
LINE
8
Shape2DView
10
-45.810981
20
22.842177
11
-46.414155
21
22.963918
0
LINE
8
Shape2DView
10
-46.414155
20
22.963918
11
-47.017329
21
22.842177
0
LINE
8
Shape2DView
10
-47.017329
20
22.842177
11
-47.509943
21
22.510161
0
LINE
8
Shape2DView
10
-47.509943
20
22.510161
11
-47.842162
21
22.017684
0
LINE
8
Shape2DView
10
-47.842162
20
22.017684
11
-47.964153
21
21.414561
0
LINE
8
Shape2DView
10
-47.964153
20
21.414561
11
-47.842162
21
20.811437
0
LINE
8
Shape2DView
10
-47.842162
20
20.811437
11
-47.509943
21
20.318961
0
LINE
8
Shape2DView
10
-47.509943
20
20.318961
11
-47.017329
21
19.986945
0
LINE
8
Shape2DView
10
-47.017329
20
19.986945
11
-46.414155
21
19.865203
0
LINE
8
Shape2DView
10
-46.414155
20
19.865203
11
-45.810981
21
19.986945
0
LINE
8
Shape2DView
10
-45.810981
20
19.986945
11
-45.318367
21
20.318961
0
LINE
8
Shape2DView
10
-45.318367
20
20.318961
11
-44.986148
21
20.811437
0
LINE
8
Shape2DView
10
-44.986148
20
20.811437
11
-44.864157
21
21.414561
0
LINE
8
Shape2DView
10
-44.864157
20
21.414561
11
-44.864157
21
21.414561
0
LINE
8
Shape2DView
10
-45.014157
20
-21.413812
11
-45.124351
21
-20.869065
0
LINE
8
Shape2DView
10
-45.124351
20
-20.869065
11
-45.424422
21
-20.424257
0
LINE
8
Shape2DView
10
-45.424422
20
-20.424257
11
-45.869360
21
-20.124380
0
LINE
8
Shape2DView
10
-45.869360
20
-20.124380
11
-46.414155
21
-20.014423
0
LINE
8
Shape2DView
10
-46.414155
20
-20.014423
11
-46.958950
21
-20.124380
0
LINE
8
Shape2DView
10
-46.958950
20
-20.124380
11
-47.403888
21
-20.424257
0
LINE
8
Shape2DView
10
-47.403888
20
-20.424257
11
-47.703959
21
-20.869065
0
LINE
8
Shape2DView
10
-47.703959
20
-20.869065
11
-47.814153
21
-21.413812
0
LINE
8
Shape2DView
10
-47.814153
20
-21.413812
11
-47.703959
21
-21.958559
0
LINE
8
Shape2DView
10
-47.703959
20
-21.958559
11
-47.403888
21
-22.403367
0
LINE
8
Shape2DView
10
-47.403888
20
-22.403367
11
-46.958950
21
-22.703245
0
LINE
8
Shape2DView
10
-46.958950
20
-22.703245
11
-46.414155
21
-22.813202
0
LINE
8
Shape2DView
10
-46.414155
20
-22.813202
11
-45.869360
21
-22.703245
0
LINE
8
Shape2DView
10
-45.869360
20
-22.703245
11
-45.424422
21
-22.403367
0
LINE
8
Shape2DView
10
-45.424422
20
-22.403367
11
-45.124351
21
-21.958559
0
LINE
8
Shape2DView
10
-45.124351
20
-21.958559
11
-45.014157
21
-21.413812
0
LINE
8
Shape2DView
10
-45.014157
20
-21.413812
11
-45.014157
21
-21.413812
0
LINE
8
Shape2DView
10
47.814153
20
-21.413812
11
47.703959
21
-20.869065
0
LINE
8
Shape2DView
10
47.703959
20
-20.869065
11
47.403888
21
-20.424257
0
LINE
8
Shape2DView
10
47.403888
20
-20.424257
11
46.958950
21
-20.124380
0
LINE
8
Shape2DView
10
46.958950
20
-20.124380
11
46.414155
21
-20.014423
0
LINE
8
Shape2DView
10
46.414155
20
-20.014423
11
45.869360
21
-20.124380
0
LINE
8
Shape2DView
10
45.869360
20
-20.124380
11
45.424422
21
-20.424257
0
LINE
8
Shape2DView
10
45.424422
20
-20.424257
11
45.124351
21
-20.869065
0
LINE
8
Shape2DView
10
45.124351
20
-20.869065
11
45.014157
21
-21.413812
0
LINE
8
Shape2DView
10
45.014157
20
-21.413812
11
45.124351
21
-21.958559
0
LINE
8
Shape2DView
10
45.124351
20
-21.958559
11
45.424422
21
-22.403367
0
LINE
8
Shape2DView
10
45.424422
20
-22.403367
11
45.869360
21
-22.703245
0
LINE
8
Shape2DView
10
45.869360
20
-22.703245
11
46.414155
21
-22.813202
0
LINE
8
Shape2DView
10
46.414155
20
-22.813202
11
46.958950
21
-22.703245
0
LINE
8
Shape2DView
10
46.958950
20
-22.703245
11
47.403888
21
-22.403367
0
LINE
8
Shape2DView
10
47.403888
20
-22.403367
11
47.703959
21
-21.958559
0
LINE
8
Shape2DView
10
47.703959
20
-21.958559
11
47.814153
21
-21.413812
0
LINE
8
Shape2DView
10
47.814153
20
-21.413812
11
47.814153
21
-21.413812
0
LINE
8
Shape2DView
10
47.814153
20
21.414561
11
47.703959
21
21.959308
0
LINE
8
Shape2DView
10
47.703959
20
21.959308
11
47.403888
21
22.404116
0
LINE
8
Shape2DView
10
47.403888
20
22.404116
11
46.958950
21
22.703993
0
LINE
8
Shape2DView
10
46.958950
20
22.703993
11
46.414155
21
22.813950
0
LINE
8
Shape2DView
10
46.414155
20
22.813950
11
45.869360
21
22.703993
0
LINE
8
Shape2DView
10
45.869360
20
22.703993
11
45.424422
21
22.404116
0
LINE
8
Shape2DView
10
45.424422
20
22.404116
11
45.124351
21
21.959308
0
LINE
8
Shape2DView
10
45.124351
20
21.959308
11
45.014157
21
21.414561
0
LINE
8
Shape2DView
10
45.014157
20
21.414561
11
45.124351
21
20.869814
0
LINE
8
Shape2DView
10
45.124351
20
20.869814
11
45.424422
21
20.425006
0
LINE
8
Shape2DView
10
45.424422
20
20.425006
11
45.869360
21
20.125128
0
LINE
8
Shape2DView
10
45.869360
20
20.125128
11
46.414155
21
20.015171
0
LINE
8
Shape2DView
10
46.414155
20
20.015171
11
46.958950
21
20.125128
0
LINE
8
Shape2DView
10
46.958950
20
20.125128
11
47.403888
21
20.425006
0
LINE
8
Shape2DView
10
47.403888
20
20.425006
11
47.703959
21
20.869814
0
LINE
8
Shape2DView
10
47.703959
20
20.869814
11
47.814153
21
21.414561
0
LINE
8
Shape2DView
10
47.814153
20
21.414561
11
47.814153
21
21.414561
0
LINE
8
Shape2DView
10
-45.014157
20
21.414561
11
-45.124351
21
21.959308
0
LINE
8
Shape2DView
10
-45.124351
20
21.959308
11
-45.424422
21
22.404116
0
LINE
8
Shape2DView
10
-45.424422
20
22.404116
11
-45.869360
21
22.703993
0
LINE
8
Shape2DView
10
-45.869360
20
22.703993
11
-46.414155
21
22.813950
0
LINE
8
Shape2DView
10
-46.414155
20
22.813950
11
-46.958950
21
22.703993
0
LINE
8
Shape2DView
10
-46.958950
20
22.703993
11
-47.403888
21
22.404116
0
LINE
8
Shape2DView
10
-47.403888
20
22.404116
11
-47.703959
21
21.959308
0
LINE
8
Shape2DView
10
-47.703959
20
21.959308
11
-47.814153
21
21.414561
0
LINE
8
Shape2DView
10
-47.814153
20
21.414561
11
-47.703959
21
20.869814
0
LINE
8
Shape2DView
10
-47.703959
20
20.869814
11
-47.403888
21
20.425006
0
LINE
8
Shape2DView
10
-47.403888
20
20.425006
11
-46.958950
21
20.125128
0
LINE
8
Shape2DView
10
-46.958950
20
20.125128
11
-46.414155
21
20.015171
0
LINE
8
Shape2DView
10
-46.414155
20
20.015171
11
-45.869360
21
20.125128
0
LINE
8
Shape2DView
10
-45.869360
20
20.125128
11
-45.424422
21
20.425006
0
LINE
8
Shape2DView
10
-45.424422
20
20.425006
11
-45.124351
21
20.869814
0
LINE
8
Shape2DView
10
-45.124351
20
20.869814
11
-45.014157
21
21.414561
0
LINE
8
Shape2DView
10
-45.014157
20
21.414561
11
-45.014157
21
21.414561
0
LINE
8
Shape2DView
10
-47.964135
20
-21.415057
11
-47.814117
21
-21.415057
0
LINE
8
Shape2DView
10
47.964135
20
-21.415057
11
47.814117
21
-21.415057
0
LINE
8
Shape2DView
10
47.964135
20
21.415639
11
47.814117
21
21.415639
0
LINE
8
Shape2DView
10
-47.964135
20
21.415639
11
-47.814117
21
21.415639
 0 
ENDSEC
 0 
EOF