ISO-10303-21;
HEADER;
FILE_DESCRIPTION(('FreeCAD Model'),'2;1');
FILE_NAME('Open CASCADE Shape Model','2025-01-03T16:15:37',(''),(''),
  'Open CASCADE STEP processor 7.8','FreeCAD','Unknown');
FILE_SCHEMA(('AUTOMOTIVE_DESIGN { 1 0 10303 214 1 1 1 1 }'));
ENDSEC;
DATA;
#1 = APPLICATION_PROTOCOL_DEFINITION('international standard',
  'automotive_design',2000,#2);
#2 = APPLICATION_CONTEXT(
  'core data for automotive mechanical design processes');
#3 = SHAPE_DEFINITION_REPRESENTATION(#4,#10);
#4 = PRODUCT_DEFINITION_SHAPE('','',#5);
#5 = PRODUCT_DEFINITION('design','',#6,#9);
#6 = PRODUCT_DEFINITION_FORMATION('','',#7);
#7 = PRODUCT('espholder','espholder','',(#8));
#8 = PRODUCT_CONTEXT('',#2,'mechanical');
#9 = PRODUCT_DEFINITION_CONTEXT('part definition',#2,'design');
#10 = ADVANCED_BREP_SHAPE_REPRESENTATION('',(#11,#15),#489);
#11 = AXIS2_PLACEMENT_3D('',#12,#13,#14);
#12 = CARTESIAN_POINT('',(0.,0.,0.));
#13 = DIRECTION('',(0.,0.,1.));
#14 = DIRECTION('',(1.,0.,-0.));
#15 = MANIFOLD_SOLID_BREP('',#16);
#16 = CLOSED_SHELL('',(#17,#73,#104,#135,#191,#214,#270,#293,#310,#339,
    #363,#387,#404,#421,#438,#450,#467,#478));
#17 = ADVANCED_FACE('',(#18),#68,.T.);
#18 = FACE_BOUND('',#19,.T.);
#19 = EDGE_LOOP('',(#20,#30,#38,#46,#54,#62));
#20 = ORIENTED_EDGE('',*,*,#21,.T.);
#21 = EDGE_CURVE('',#22,#24,#26,.T.);
#22 = VERTEX_POINT('',#23);
#23 = CARTESIAN_POINT('',(-12.65,1.,9.4));
#24 = VERTEX_POINT('',#25);
#25 = CARTESIAN_POINT('',(12.65,1.,9.4));
#26 = LINE('',#27,#28);
#27 = CARTESIAN_POINT('',(-12.65,1.,9.4));
#28 = VECTOR('',#29,1.);
#29 = DIRECTION('',(1.,-6.661338147751E-16,3.574525976783E-31));
#30 = ORIENTED_EDGE('',*,*,#31,.T.);
#31 = EDGE_CURVE('',#24,#32,#34,.T.);
#32 = VERTEX_POINT('',#33);
#33 = CARTESIAN_POINT('',(12.65,-3.041421356237,9.4));
#34 = LINE('',#35,#36);
#35 = CARTESIAN_POINT('',(12.65,1.,9.4));
#36 = VECTOR('',#37,1.);
#37 = DIRECTION('',(4.440892098501E-16,-1.,1.110223024625E-15));
#38 = ORIENTED_EDGE('',*,*,#39,.T.);
#39 = EDGE_CURVE('',#32,#40,#42,.T.);
#40 = VERTEX_POINT('',#41);
#41 = CARTESIAN_POINT('',(12.65,-5.5,9.4));
#42 = LINE('',#43,#44);
#43 = CARTESIAN_POINT('',(12.65,1.,9.4));
#44 = VECTOR('',#45,1.);
#45 = DIRECTION('',(4.440892098501E-16,-1.,1.110223024625E-15));
#46 = ORIENTED_EDGE('',*,*,#47,.F.);
#47 = EDGE_CURVE('',#48,#40,#50,.T.);
#48 = VERTEX_POINT('',#49);
#49 = CARTESIAN_POINT('',(-12.65,-5.5,9.4));
#50 = LINE('',#51,#52);
#51 = CARTESIAN_POINT('',(-12.65,-5.5,9.4));
#52 = VECTOR('',#53,1.);
#53 = DIRECTION('',(1.,-6.661338147751E-16,3.574525976783E-31));
#54 = ORIENTED_EDGE('',*,*,#55,.F.);
#55 = EDGE_CURVE('',#56,#48,#58,.T.);
#56 = VERTEX_POINT('',#57);
#57 = CARTESIAN_POINT('',(-12.65,-3.041421356237,9.4));
#58 = LINE('',#59,#60);
#59 = CARTESIAN_POINT('',(-12.65,1.,9.4));
#60 = VECTOR('',#61,1.);
#61 = DIRECTION('',(4.440892098501E-16,-1.,1.110223024625E-15));
#62 = ORIENTED_EDGE('',*,*,#63,.F.);
#63 = EDGE_CURVE('',#22,#56,#64,.T.);
#64 = LINE('',#65,#66);
#65 = CARTESIAN_POINT('',(-12.65,1.,9.4));
#66 = VECTOR('',#67,1.);
#67 = DIRECTION('',(4.440892098501E-16,-1.,1.110223024625E-15));
#68 = PLANE('',#69);
#69 = AXIS2_PLACEMENT_3D('',#70,#71,#72);
#70 = CARTESIAN_POINT('',(-12.65,1.,9.4));
#71 = DIRECTION('',(6.661338147751E-16,-2.22044604925E-16,-1.));
#72 = DIRECTION('',(2.22044604925E-16,-1.,8.881784197001E-16));
#73 = ADVANCED_FACE('',(#74),#99,.T.);
#74 = FACE_BOUND('',#75,.T.);
#75 = EDGE_LOOP('',(#76,#86,#92,#93));
#76 = ORIENTED_EDGE('',*,*,#77,.T.);
#77 = EDGE_CURVE('',#78,#80,#82,.T.);
#78 = VERTEX_POINT('',#79);
#79 = CARTESIAN_POINT('',(-12.65,1.,16.8));
#80 = VERTEX_POINT('',#81);
#81 = CARTESIAN_POINT('',(12.65,1.,16.8));
#82 = LINE('',#83,#84);
#83 = CARTESIAN_POINT('',(-12.65,1.,16.8));
#84 = VECTOR('',#85,1.);
#85 = DIRECTION('',(1.,-6.661338147751E-16,3.574525976783E-31));
#86 = ORIENTED_EDGE('',*,*,#87,.T.);
#87 = EDGE_CURVE('',#80,#24,#88,.T.);
#88 = LINE('',#89,#90);
#89 = CARTESIAN_POINT('',(12.65,1.,16.8));
#90 = VECTOR('',#91,1.);
#91 = DIRECTION('',(1.110223024625E-15,2.22044604925E-16,-1.));
#92 = ORIENTED_EDGE('',*,*,#21,.F.);
#93 = ORIENTED_EDGE('',*,*,#94,.F.);
#94 = EDGE_CURVE('',#78,#22,#95,.T.);
#95 = LINE('',#96,#97);
#96 = CARTESIAN_POINT('',(-12.65,1.,16.8));
#97 = VECTOR('',#98,1.);
#98 = DIRECTION('',(1.110223024625E-15,2.22044604925E-16,-1.));
#99 = PLANE('',#100);
#100 = AXIS2_PLACEMENT_3D('',#101,#102,#103);
#101 = CARTESIAN_POINT('',(-12.65,1.,16.8));
#102 = DIRECTION('',(9.860761315263E-32,1.,-6.661338147751E-16));
#103 = DIRECTION('',(8.881784197001E-16,-2.958228394579E-31,-1.));
#104 = ADVANCED_FACE('',(#105),#130,.T.);
#105 = FACE_BOUND('',#106,.T.);
#106 = EDGE_LOOP('',(#107,#108,#116,#124));
#107 = ORIENTED_EDGE('',*,*,#47,.T.);
#108 = ORIENTED_EDGE('',*,*,#109,.T.);
#109 = EDGE_CURVE('',#40,#110,#112,.T.);
#110 = VERTEX_POINT('',#111);
#111 = CARTESIAN_POINT('',(12.65,-5.5,13.));
#112 = LINE('',#113,#114);
#113 = CARTESIAN_POINT('',(12.65,-5.5,9.4));
#114 = VECTOR('',#115,1.);
#115 = DIRECTION('',(-1.110223024625E-15,-2.22044604925E-16,1.));
#116 = ORIENTED_EDGE('',*,*,#117,.F.);
#117 = EDGE_CURVE('',#118,#110,#120,.T.);
#118 = VERTEX_POINT('',#119);
#119 = CARTESIAN_POINT('',(-12.65,-5.5,13.));
#120 = LINE('',#121,#122);
#121 = CARTESIAN_POINT('',(-12.65,-5.5,13.));
#122 = VECTOR('',#123,1.);
#123 = DIRECTION('',(1.,-6.661338147751E-16,3.574525976783E-31));
#124 = ORIENTED_EDGE('',*,*,#125,.F.);
#125 = EDGE_CURVE('',#48,#118,#126,.T.);
#126 = LINE('',#127,#128);
#127 = CARTESIAN_POINT('',(-12.65,-5.5,9.4));
#128 = VECTOR('',#129,1.);
#129 = DIRECTION('',(-1.110223024625E-15,-2.22044604925E-16,1.));
#130 = PLANE('',#131);
#131 = AXIS2_PLACEMENT_3D('',#132,#133,#134);
#132 = CARTESIAN_POINT('',(-12.65,-5.5,9.4));
#133 = DIRECTION('',(-9.860761315263E-32,-1.,6.661338147751E-16));
#134 = DIRECTION('',(-8.881784197001E-16,2.958228394579E-31,1.));
#135 = ADVANCED_FACE('',(#136),#186,.F.);
#136 = FACE_BOUND('',#137,.F.);
#137 = EDGE_LOOP('',(#138,#139,#140,#148,#156,#164,#172,#180));
#138 = ORIENTED_EDGE('',*,*,#63,.F.);
#139 = ORIENTED_EDGE('',*,*,#94,.F.);
#140 = ORIENTED_EDGE('',*,*,#141,.F.);
#141 = EDGE_CURVE('',#142,#78,#144,.T.);
#142 = VERTEX_POINT('',#143);
#143 = CARTESIAN_POINT('',(-12.65,-3.5,16.8));
#144 = LINE('',#145,#146);
#145 = CARTESIAN_POINT('',(-12.65,-3.5,16.8));
#146 = VECTOR('',#147,1.);
#147 = DIRECTION('',(-4.440892098501E-16,1.,-1.110223024625E-15));
#148 = ORIENTED_EDGE('',*,*,#149,.F.);
#149 = EDGE_CURVE('',#150,#142,#152,.T.);
#150 = VERTEX_POINT('',#151);
#151 = CARTESIAN_POINT('',(-12.65,-3.5,14.8));
#152 = LINE('',#153,#154);
#153 = CARTESIAN_POINT('',(-12.65,-3.5,14.8));
#154 = VECTOR('',#155,1.);
#155 = DIRECTION('',(-1.110223024625E-15,-2.22044604925E-16,1.));
#156 = ORIENTED_EDGE('',*,*,#157,.F.);
#157 = EDGE_CURVE('',#158,#150,#160,.T.);
#158 = VERTEX_POINT('',#159);
#159 = CARTESIAN_POINT('',(-12.65,-1.5,14.8));
#160 = LINE('',#161,#162);
#161 = CARTESIAN_POINT('',(-12.65,-1.5,14.8));
#162 = VECTOR('',#163,1.);
#163 = DIRECTION('',(4.440892098501E-16,-1.,1.110223024625E-15));
#164 = ORIENTED_EDGE('',*,*,#165,.F.);
#165 = EDGE_CURVE('',#166,#158,#168,.T.);
#166 = VERTEX_POINT('',#167);
#167 = CARTESIAN_POINT('',(-12.65,-1.5,13.));
#168 = LINE('',#169,#170);
#169 = CARTESIAN_POINT('',(-12.65,-1.5,13.));
#170 = VECTOR('',#171,1.);
#171 = DIRECTION('',(-1.110223024625E-15,-2.22044604925E-16,1.));
#172 = ORIENTED_EDGE('',*,*,#173,.F.);
#173 = EDGE_CURVE('',#174,#166,#176,.T.);
#174 = VERTEX_POINT('',#175);
#175 = CARTESIAN_POINT('',(-12.65,-3.041421356237,13.));
#176 = LINE('',#177,#178);
#177 = CARTESIAN_POINT('',(-12.65,-5.5,13.));
#178 = VECTOR('',#179,1.);
#179 = DIRECTION('',(-4.440892098501E-16,1.,-1.110223024625E-15));
#180 = ORIENTED_EDGE('',*,*,#181,.T.);
#181 = EDGE_CURVE('',#174,#56,#182,.T.);
#182 = LINE('',#183,#184);
#183 = CARTESIAN_POINT('',(-12.65,-3.041421356237,13.));
#184 = VECTOR('',#185,1.);
#185 = DIRECTION('',(3.330669073875E-16,-1.110223024625E-16,-1.));
#186 = PLANE('',#187);
#187 = AXIS2_PLACEMENT_3D('',#188,#189,#190);
#188 = CARTESIAN_POINT('',(-12.65,-1.929245283019,12.961635220126));
#189 = DIRECTION('',(1.,-8.881784197001E-16,-2.22044604925E-16));
#190 = DIRECTION('',(-1.110223024625E-15,-2.22044604925E-16,1.));
#191 = ADVANCED_FACE('',(#192),#209,.T.);
#192 = FACE_BOUND('',#193,.T.);
#193 = EDGE_LOOP('',(#194,#195,#203));
#194 = ORIENTED_EDGE('',*,*,#55,.T.);
#195 = ORIENTED_EDGE('',*,*,#196,.T.);
#196 = EDGE_CURVE('',#48,#197,#199,.T.);
#197 = VERTEX_POINT('',#198);
#198 = CARTESIAN_POINT('',(-15.10857864376,-5.5,9.4));
#199 = LINE('',#200,#201);
#200 = CARTESIAN_POINT('',(-12.65,-5.5,9.4));
#201 = VECTOR('',#202,1.);
#202 = DIRECTION('',(-1.,-9.860761315263E-32,-4.440892098501E-16));
#203 = ORIENTED_EDGE('',*,*,#204,.T.);
#204 = EDGE_CURVE('',#197,#56,#205,.T.);
#205 = LINE('',#206,#207);
#206 = CARTESIAN_POINT('',(-12.86893398282,-3.260355339059,9.4));
#207 = VECTOR('',#208,1.);
#208 = DIRECTION('',(0.707106781187,0.707106781187,-1.570092458684E-16)
  );
#209 = PLANE('',#210);
#210 = AXIS2_PLACEMENT_3D('',#211,#212,#213);
#211 = CARTESIAN_POINT('',(-12.65,1.,9.4));
#212 = DIRECTION('',(4.440892098501E-16,-6.661338147751E-16,-1.));
#213 = DIRECTION('',(-1.725633230171E-31,-1.,6.661338147751E-16));
#214 = ADVANCED_FACE('',(#215),#265,.T.);
#215 = FACE_BOUND('',#216,.T.);
#216 = EDGE_LOOP('',(#217,#218,#219,#227,#235,#243,#251,#259));
#217 = ORIENTED_EDGE('',*,*,#31,.F.);
#218 = ORIENTED_EDGE('',*,*,#87,.F.);
#219 = ORIENTED_EDGE('',*,*,#220,.F.);
#220 = EDGE_CURVE('',#221,#80,#223,.T.);
#221 = VERTEX_POINT('',#222);
#222 = CARTESIAN_POINT('',(12.65,-3.5,16.8));
#223 = LINE('',#224,#225);
#224 = CARTESIAN_POINT('',(12.65,-3.5,16.8));
#225 = VECTOR('',#226,1.);
#226 = DIRECTION('',(-4.440892098501E-16,1.,-1.110223024625E-15));
#227 = ORIENTED_EDGE('',*,*,#228,.F.);
#228 = EDGE_CURVE('',#229,#221,#231,.T.);
#229 = VERTEX_POINT('',#230);
#230 = CARTESIAN_POINT('',(12.65,-3.5,14.8));
#231 = LINE('',#232,#233);
#232 = CARTESIAN_POINT('',(12.65,-3.5,14.8));
#233 = VECTOR('',#234,1.);
#234 = DIRECTION('',(-1.110223024625E-15,-2.22044604925E-16,1.));
#235 = ORIENTED_EDGE('',*,*,#236,.F.);
#236 = EDGE_CURVE('',#237,#229,#239,.T.);
#237 = VERTEX_POINT('',#238);
#238 = CARTESIAN_POINT('',(12.65,-1.5,14.8));
#239 = LINE('',#240,#241);
#240 = CARTESIAN_POINT('',(12.65,-1.5,14.8));
#241 = VECTOR('',#242,1.);
#242 = DIRECTION('',(4.440892098501E-16,-1.,1.110223024625E-15));
#243 = ORIENTED_EDGE('',*,*,#244,.F.);
#244 = EDGE_CURVE('',#245,#237,#247,.T.);
#245 = VERTEX_POINT('',#246);
#246 = CARTESIAN_POINT('',(12.65,-1.5,13.));
#247 = LINE('',#248,#249);
#248 = CARTESIAN_POINT('',(12.65,-1.5,13.));
#249 = VECTOR('',#250,1.);
#250 = DIRECTION('',(-1.110223024625E-15,-2.22044604925E-16,1.));
#251 = ORIENTED_EDGE('',*,*,#252,.F.);
#252 = EDGE_CURVE('',#253,#245,#255,.T.);
#253 = VERTEX_POINT('',#254);
#254 = CARTESIAN_POINT('',(12.65,-3.041421356237,13.));
#255 = LINE('',#256,#257);
#256 = CARTESIAN_POINT('',(12.65,-5.5,13.));
#257 = VECTOR('',#258,1.);
#258 = DIRECTION('',(-4.440892098501E-16,1.,-1.110223024625E-15));
#259 = ORIENTED_EDGE('',*,*,#260,.T.);
#260 = EDGE_CURVE('',#253,#32,#261,.T.);
#261 = LINE('',#262,#263);
#262 = CARTESIAN_POINT('',(12.65,-3.041421356237,13.));
#263 = VECTOR('',#264,1.);
#264 = DIRECTION('',(3.330669073875E-16,-1.110223024625E-16,-1.));
#265 = PLANE('',#266);
#266 = AXIS2_PLACEMENT_3D('',#267,#268,#269);
#267 = CARTESIAN_POINT('',(12.65,-1.929245283019,12.961635220126));
#268 = DIRECTION('',(1.,-8.881784197001E-16,-2.22044604925E-16));
#269 = DIRECTION('',(-1.110223024625E-15,-2.22044604925E-16,1.));
#270 = ADVANCED_FACE('',(#271),#288,.T.);
#271 = FACE_BOUND('',#272,.T.);
#272 = EDGE_LOOP('',(#273,#281,#282));
#273 = ORIENTED_EDGE('',*,*,#274,.F.);
#274 = EDGE_CURVE('',#40,#275,#277,.T.);
#275 = VERTEX_POINT('',#276);
#276 = CARTESIAN_POINT('',(15.108578643763,-5.5,9.4));
#277 = LINE('',#278,#279);
#278 = CARTESIAN_POINT('',(-5.484501741648E-15,-5.5,9.4));
#279 = VECTOR('',#280,1.);
#280 = DIRECTION('',(1.,9.860761315263E-32,4.440892098501E-16));
#281 = ORIENTED_EDGE('',*,*,#39,.F.);
#282 = ORIENTED_EDGE('',*,*,#283,.F.);
#283 = EDGE_CURVE('',#275,#32,#284,.T.);
#284 = LINE('',#285,#286);
#285 = CARTESIAN_POINT('',(6.543933982822,3.064644660941,9.4));
#286 = VECTOR('',#287,1.);
#287 = DIRECTION('',(-0.707106781187,0.707106781187,-7.850462293419E-16)
  );
#288 = PLANE('',#289);
#289 = AXIS2_PLACEMENT_3D('',#290,#291,#292);
#290 = CARTESIAN_POINT('',(-12.65,1.,9.4));
#291 = DIRECTION('',(4.440892098501E-16,-6.661338147751E-16,-1.));
#292 = DIRECTION('',(-1.725633230171E-31,-1.,6.661338147751E-16));
#293 = ADVANCED_FACE('',(#294),#305,.T.);
#294 = FACE_BOUND('',#295,.T.);
#295 = EDGE_LOOP('',(#296,#302,#303,#304));
#296 = ORIENTED_EDGE('',*,*,#297,.T.);
#297 = EDGE_CURVE('',#142,#221,#298,.T.);
#298 = LINE('',#299,#300);
#299 = CARTESIAN_POINT('',(-12.65,-3.5,16.8));
#300 = VECTOR('',#301,1.);
#301 = DIRECTION('',(1.,-6.661338147751E-16,3.574525976783E-31));
#302 = ORIENTED_EDGE('',*,*,#220,.T.);
#303 = ORIENTED_EDGE('',*,*,#77,.F.);
#304 = ORIENTED_EDGE('',*,*,#141,.F.);
#305 = PLANE('',#306);
#306 = AXIS2_PLACEMENT_3D('',#307,#308,#309);
#307 = CARTESIAN_POINT('',(-12.65,-3.5,16.8));
#308 = DIRECTION('',(-6.661338147751E-16,2.22044604925E-16,1.));
#309 = DIRECTION('',(-2.22044604925E-16,1.,-8.881784197001E-16));
#310 = ADVANCED_FACE('',(#311),#334,.T.);
#311 = FACE_BOUND('',#312,.T.);
#312 = EDGE_LOOP('',(#313,#314,#320,#321,#327,#328));
#313 = ORIENTED_EDGE('',*,*,#117,.T.);
#314 = ORIENTED_EDGE('',*,*,#315,.T.);
#315 = EDGE_CURVE('',#110,#253,#316,.T.);
#316 = LINE('',#317,#318);
#317 = CARTESIAN_POINT('',(12.65,-5.5,13.));
#318 = VECTOR('',#319,1.);
#319 = DIRECTION('',(-4.440892098501E-16,1.,-1.110223024625E-15));
#320 = ORIENTED_EDGE('',*,*,#252,.T.);
#321 = ORIENTED_EDGE('',*,*,#322,.F.);
#322 = EDGE_CURVE('',#166,#245,#323,.T.);
#323 = LINE('',#324,#325);
#324 = CARTESIAN_POINT('',(-12.65,-1.5,13.));
#325 = VECTOR('',#326,1.);
#326 = DIRECTION('',(1.,-6.661338147751E-16,3.574525976783E-31));
#327 = ORIENTED_EDGE('',*,*,#173,.F.);
#328 = ORIENTED_EDGE('',*,*,#329,.F.);
#329 = EDGE_CURVE('',#118,#174,#330,.T.);
#330 = LINE('',#331,#332);
#331 = CARTESIAN_POINT('',(-12.65,-5.5,13.));
#332 = VECTOR('',#333,1.);
#333 = DIRECTION('',(-4.440892098501E-16,1.,-1.110223024625E-15));
#334 = PLANE('',#335);
#335 = AXIS2_PLACEMENT_3D('',#336,#337,#338);
#336 = CARTESIAN_POINT('',(-12.65,-5.5,13.));
#337 = DIRECTION('',(-6.661338147751E-16,2.22044604925E-16,1.));
#338 = DIRECTION('',(-2.22044604925E-16,1.,-8.881784197001E-16));
#339 = ADVANCED_FACE('',(#340),#358,.F.);
#340 = FACE_BOUND('',#341,.F.);
#341 = EDGE_LOOP('',(#342,#350,#351,#352));
#342 = ORIENTED_EDGE('',*,*,#343,.F.);
#343 = EDGE_CURVE('',#118,#344,#346,.T.);
#344 = VERTEX_POINT('',#345);
#345 = CARTESIAN_POINT('',(-15.10857864376,-5.5,13.));
#346 = LINE('',#347,#348);
#347 = CARTESIAN_POINT('',(-12.65,-5.5,13.));
#348 = VECTOR('',#349,1.);
#349 = DIRECTION('',(-1.,2.22044604925E-16,1.110223024625E-16));
#350 = ORIENTED_EDGE('',*,*,#125,.F.);
#351 = ORIENTED_EDGE('',*,*,#196,.T.);
#352 = ORIENTED_EDGE('',*,*,#353,.F.);
#353 = EDGE_CURVE('',#344,#197,#354,.T.);
#354 = LINE('',#355,#356);
#355 = CARTESIAN_POINT('',(-15.10857864376,-5.5,13.));
#356 = VECTOR('',#357,1.);
#357 = DIRECTION('',(3.330669073875E-16,-1.110223024625E-16,-1.));
#358 = PLANE('',#359);
#359 = AXIS2_PLACEMENT_3D('',#360,#361,#362);
#360 = CARTESIAN_POINT('',(-12.65,-5.5,13.));
#361 = DIRECTION('',(-4.930380657631E-32,1.,-1.110223024625E-16));
#362 = DIRECTION('',(-1.,-6.162975822039E-32,-1.110223024625E-16));
#363 = ADVANCED_FACE('',(#364),#382,.T.);
#364 = FACE_BOUND('',#365,.T.);
#365 = EDGE_LOOP('',(#366,#374,#375,#376));
#366 = ORIENTED_EDGE('',*,*,#367,.F.);
#367 = EDGE_CURVE('',#110,#368,#370,.T.);
#368 = VERTEX_POINT('',#369);
#369 = CARTESIAN_POINT('',(15.108578643763,-5.5,13.));
#370 = LINE('',#371,#372);
#371 = CARTESIAN_POINT('',(12.65,-5.5,13.));
#372 = VECTOR('',#373,1.);
#373 = DIRECTION('',(1.,-2.22044604925E-16,-1.110223024625E-16));
#374 = ORIENTED_EDGE('',*,*,#109,.F.);
#375 = ORIENTED_EDGE('',*,*,#274,.T.);
#376 = ORIENTED_EDGE('',*,*,#377,.F.);
#377 = EDGE_CURVE('',#368,#275,#378,.T.);
#378 = LINE('',#379,#380);
#379 = CARTESIAN_POINT('',(15.108578643763,-5.5,13.));
#380 = VECTOR('',#381,1.);
#381 = DIRECTION('',(3.330669073875E-16,-1.110223024625E-16,-1.));
#382 = PLANE('',#383);
#383 = AXIS2_PLACEMENT_3D('',#384,#385,#386);
#384 = CARTESIAN_POINT('',(12.65,-5.5,13.));
#385 = DIRECTION('',(4.930380657631E-32,-1.,1.110223024625E-16));
#386 = DIRECTION('',(1.,6.162975822039E-32,1.110223024625E-16));
#387 = ADVANCED_FACE('',(#388),#399,.F.);
#388 = FACE_BOUND('',#389,.F.);
#389 = EDGE_LOOP('',(#390,#396,#397,#398));
#390 = ORIENTED_EDGE('',*,*,#391,.F.);
#391 = EDGE_CURVE('',#344,#174,#392,.T.);
#392 = LINE('',#393,#394);
#393 = CARTESIAN_POINT('',(-15.10857864376,-5.5,13.));
#394 = VECTOR('',#395,1.);
#395 = DIRECTION('',(0.707106781187,0.707106781187,-4.710277376051E-16)
  );
#396 = ORIENTED_EDGE('',*,*,#353,.T.);
#397 = ORIENTED_EDGE('',*,*,#204,.T.);
#398 = ORIENTED_EDGE('',*,*,#181,.F.);
#399 = PLANE('',#400);
#400 = AXIS2_PLACEMENT_3D('',#401,#402,#403);
#401 = CARTESIAN_POINT('',(-15.10857864376,-5.5,13.));
#402 = DIRECTION('',(0.707106781187,-0.707106781187,3.140184917368E-16)
  );
#403 = DIRECTION('',(0.707106781187,0.707106781187,-1.570092458684E-16)
  );
#404 = ADVANCED_FACE('',(#405),#416,.T.);
#405 = FACE_BOUND('',#406,.T.);
#406 = EDGE_LOOP('',(#407,#408,#409,#415));
#407 = ORIENTED_EDGE('',*,*,#322,.T.);
#408 = ORIENTED_EDGE('',*,*,#244,.T.);
#409 = ORIENTED_EDGE('',*,*,#410,.F.);
#410 = EDGE_CURVE('',#158,#237,#411,.T.);
#411 = LINE('',#412,#413);
#412 = CARTESIAN_POINT('',(-12.65,-1.5,14.8));
#413 = VECTOR('',#414,1.);
#414 = DIRECTION('',(1.,-6.661338147751E-16,3.574525976783E-31));
#415 = ORIENTED_EDGE('',*,*,#165,.F.);
#416 = PLANE('',#417);
#417 = AXIS2_PLACEMENT_3D('',#418,#419,#420);
#418 = CARTESIAN_POINT('',(-12.65,-1.5,13.));
#419 = DIRECTION('',(-9.860761315263E-32,-1.,6.661338147751E-16));
#420 = DIRECTION('',(-8.881784197001E-16,2.958228394579E-31,1.));
#421 = ADVANCED_FACE('',(#422),#433,.T.);
#422 = FACE_BOUND('',#423,.T.);
#423 = EDGE_LOOP('',(#424,#425,#426,#432));
#424 = ORIENTED_EDGE('',*,*,#410,.T.);
#425 = ORIENTED_EDGE('',*,*,#236,.T.);
#426 = ORIENTED_EDGE('',*,*,#427,.F.);
#427 = EDGE_CURVE('',#150,#229,#428,.T.);
#428 = LINE('',#429,#430);
#429 = CARTESIAN_POINT('',(-12.65,-3.5,14.8));
#430 = VECTOR('',#431,1.);
#431 = DIRECTION('',(1.,-6.661338147751E-16,3.574525976783E-31));
#432 = ORIENTED_EDGE('',*,*,#157,.F.);
#433 = PLANE('',#434);
#434 = AXIS2_PLACEMENT_3D('',#435,#436,#437);
#435 = CARTESIAN_POINT('',(-12.65,-1.5,14.8));
#436 = DIRECTION('',(6.661338147751E-16,-2.22044604925E-16,-1.));
#437 = DIRECTION('',(2.22044604925E-16,-1.,8.881784197001E-16));
#438 = ADVANCED_FACE('',(#439),#445,.T.);
#439 = FACE_BOUND('',#440,.T.);
#440 = EDGE_LOOP('',(#441,#442,#443,#444));
#441 = ORIENTED_EDGE('',*,*,#427,.T.);
#442 = ORIENTED_EDGE('',*,*,#228,.T.);
#443 = ORIENTED_EDGE('',*,*,#297,.F.);
#444 = ORIENTED_EDGE('',*,*,#149,.F.);
#445 = PLANE('',#446);
#446 = AXIS2_PLACEMENT_3D('',#447,#448,#449);
#447 = CARTESIAN_POINT('',(-12.65,-3.5,14.8));
#448 = DIRECTION('',(-9.860761315263E-32,-1.,6.661338147751E-16));
#449 = DIRECTION('',(-8.881784197001E-16,2.958228394579E-31,1.));
#450 = ADVANCED_FACE('',(#451),#462,.T.);
#451 = FACE_BOUND('',#452,.T.);
#452 = EDGE_LOOP('',(#453,#459,#460,#461));
#453 = ORIENTED_EDGE('',*,*,#454,.F.);
#454 = EDGE_CURVE('',#368,#253,#455,.T.);
#455 = LINE('',#456,#457);
#456 = CARTESIAN_POINT('',(15.108578643763,-5.5,13.));
#457 = VECTOR('',#458,1.);
#458 = DIRECTION('',(-0.707106781187,0.707106781187,-3.140184917368E-16)
  );
#459 = ORIENTED_EDGE('',*,*,#377,.T.);
#460 = ORIENTED_EDGE('',*,*,#283,.T.);
#461 = ORIENTED_EDGE('',*,*,#260,.F.);
#462 = PLANE('',#463);
#463 = AXIS2_PLACEMENT_3D('',#464,#465,#466);
#464 = CARTESIAN_POINT('',(15.108578643763,-5.5,13.));
#465 = DIRECTION('',(0.707106781187,0.707106781187,1.570092458684E-16));
#466 = DIRECTION('',(-0.707106781187,0.707106781187,-3.140184917368E-16)
  );
#467 = ADVANCED_FACE('',(#468),#473,.T.);
#468 = FACE_BOUND('',#469,.F.);
#469 = EDGE_LOOP('',(#470,#471,#472));
#470 = ORIENTED_EDGE('',*,*,#343,.T.);
#471 = ORIENTED_EDGE('',*,*,#391,.T.);
#472 = ORIENTED_EDGE('',*,*,#329,.F.);
#473 = PLANE('',#474);
#474 = AXIS2_PLACEMENT_3D('',#475,#476,#477);
#475 = CARTESIAN_POINT('',(-6.823072243053E-15,-4.630761184457,13.));
#476 = DIRECTION('',(-5.551115123126E-16,-1.110223024625E-16,1.));
#477 = DIRECTION('',(1.,-4.440892098501E-16,-1.110223024625E-16));
#478 = ADVANCED_FACE('',(#479),#484,.T.);
#479 = FACE_BOUND('',#480,.T.);
#480 = EDGE_LOOP('',(#481,#482,#483));
#481 = ORIENTED_EDGE('',*,*,#367,.T.);
#482 = ORIENTED_EDGE('',*,*,#454,.T.);
#483 = ORIENTED_EDGE('',*,*,#315,.F.);
#484 = PLANE('',#485);
#485 = AXIS2_PLACEMENT_3D('',#486,#487,#488);
#486 = CARTESIAN_POINT('',(-6.823072243053E-15,-4.630761184457,13.));
#487 = DIRECTION('',(-5.551115123126E-16,-1.110223024625E-16,1.));
#488 = DIRECTION('',(1.,-4.440892098501E-16,-1.110223024625E-16));
#489 = ( GEOMETRIC_REPRESENTATION_CONTEXT(3) 
GLOBAL_UNCERTAINTY_ASSIGNED_CONTEXT((#493)) GLOBAL_UNIT_ASSIGNED_CONTEXT
((#490,#491,#492)) REPRESENTATION_CONTEXT('Context #1',
  '3D Context with UNIT and UNCERTAINTY') );
#490 = ( LENGTH_UNIT() NAMED_UNIT(*) SI_UNIT(.MILLI.,.METRE.) );
#491 = ( NAMED_UNIT(*) PLANE_ANGLE_UNIT() SI_UNIT($,.RADIAN.) );
#492 = ( NAMED_UNIT(*) SI_UNIT($,.STERADIAN.) SOLID_ANGLE_UNIT() );
#493 = UNCERTAINTY_MEASURE_WITH_UNIT(LENGTH_MEASURE(1.E-07),#490,
  'distance_accuracy_value','confusion accuracy');
#494 = PRODUCT_RELATED_PRODUCT_CATEGORY('part',$,(#7));
#495 = MECHANICAL_DESIGN_GEOMETRIC_PRESENTATION_REPRESENTATION('',(#496)
  ,#489);
#496 = STYLED_ITEM('color',(#497),#15);
#497 = PRESENTATION_STYLE_ASSIGNMENT((#498,#504));
#498 = SURFACE_STYLE_USAGE(.BOTH.,#499);
#499 = SURFACE_SIDE_STYLE('',(#500));
#500 = SURFACE_STYLE_FILL_AREA(#501);
#501 = FILL_AREA_STYLE('',(#502));
#502 = FILL_AREA_STYLE_COLOUR('',#503);
#503 = COLOUR_RGB('',0.800000010877,0.800000010877,0.90196104065);
#504 = CURVE_STYLE('',#505,POSITIVE_LENGTH_MEASURE(0.1),#506);
#505 = DRAUGHTING_PRE_DEFINED_CURVE_FONT('continuous');
#506 = COLOUR_RGB('',9.803921802644E-02,9.803921802644E-02,
  9.803921802644E-02);
ENDSEC;
END-ISO-10303-21;
